Song name
# A B C D E F G H I J K L M N O P Q R S T U V W X Y Z

Psychedelic Furs - Pretty In Pink tab

Ok this need to be posted cos all the other tabs i found were woefully inaccurate. I 
have everything completely correct either but it sound a hell of a lot better than any 
tab I\'ve been able to locate. Enjoy, it\'s a brilliant song.

Intro: Get a feel for the song before you try this cos its really played on brass.
e|---------------------------------------------------------------|
B|---------------------------------------------------------------|
G|-9---9--6--4-----------9---9--6--4-----------------------------|
D|-9---9--6--4--7--9-----9---9--6--4--7--9-----------------------|
A|-7---7--4--2--7--9-----7---7--4--2--7--9-----------------------|
E|--------------5--7------------------5--7-----------------------|

Verse:
   E          D          Bm         Am
e|---------------------------------------------------------------|
B|---------------------------------------------------------------|
G|-99999999---77777777-------------------------------------------|
D|-99999999---77777777---99999999---77777777---------------------|
A|-77777777---55555555---99999999---77777777---------------------|
E|-----------------------77777777---55555555---------------------|
  Caroline... Raining... Wants...   Girls...

  E           D          Am         Bm
e|---------------------------------------------------------------|
B|---------------------------------------------------------------|
G|-99999999---77777777-------------------------------------------|
D|-99999999---77777777---77777777---99999999---------------------|
A|-77777777---55555555---77777777---99999999---------------------|
E|-----------------------55555555---77777777---------------------|
                                          She\'s...
Chorus:

e|---------------------------------------------------------------|
B|---------------------------------------------------------------|
G|---------------------------------------------------------------|
D|-11-----9-------------7--9--------11--9-------------7----------|
A|-11-----9-------------7--9--------11--9-------------7----------|
E|-9------7-------------5--7--------9---7-------------5----------|
          Pretty in Pink   Isn\'t she    Pretty in Pink

And thats about it. I can\'t help you with any sort of solo but this makes a good party 
song. Have fun.
Tap to rate this tab
# A B C D E F G H I J K L M N O P Q R S T U V W X Y Z