Song name
# A B C D E F G H I J K L M N O P Q R S T U V W X Y Z

Psycostick - Beer tab

Artist: Psychostick
Song: BEER!
Album: We Couldn't Think of a Title 

CGCFAD
________________________________________________
 (X3)                       (X3)               |
D|-------------------| |------------------|    |
A|-------------------| |------------------|    |
F|-------------------| |------------------|    |
C|-------------------| |------------------|    | 
G|---5---5---5-------| |--5---5---5-------|    |
C|-0---0---0---0-4---| |--------------4---|    |
                                               |
                                               |
(X2) (more bend on the second time)            |
D|-----------------                                                         
A|---------------------|                       |
F|---------------------|                       |
C|---------------------|                       |
G|--5b---5b---5b-------|                       |
C|-----------------4---|                       |-------------X2
                                               |
                                               |   
BEER IS GOOD!                                  |         
D|-----------|--------| |-----------|          |
A|-----------|--------| |-----------|          |
F|-----------|--------| |-----------|          |
C|-----------|--------| |-----------|          |
G|-----------|--------| |-----------|          |
C|--6--0--0--|--0--0--| |--0--0--0--|          |
(Im not too sure about this)                   |
                                               |
                                               |
 (X3)                                          |
D|--------------------|-------------|          |
A|--------------------|-------------|          |
F|--------------------|-------------|          |
C|--------------------|-------------|          |
G|--------------------|-------------|          |
C|-0--0-0--6--0----0--|--0---0---0--|          |
(again, not too sure)                          |
-----------------------------------------------|

(X4)
D|----------------------------------|
A|----------------------------------|
F|----------------------------------|
C|----------------------------------|
G|----------------------------------|
C|-2-1-1-1-2-1-1-1-2-1-1-1-4-5-4-3--|

(X2 on the second time dont play the 4th fret)
D|-------------------|  
A|-------------------| 
F|-------------------| 
C|-------------------| 
G|---5---5---5-------| 
C|-0---0---0---0-4---|


(X2)                 
D|----------------------------------|
A|----------------------------------|
F|----------------------------------|
C|----------------------------------|
G|----------------------------------|
C|-2-1-1-1-2-1-1-1-2-1-1-1-4-5-4-3--|
                                  
                                                        Palm Mute
D|----------------------------------------------------|----------|
A|----------------------------------------------------|----------|
F|----------------------------------------------------|----------|
C|----------------------------------------------------|----------|
G|-2-1--1-2-1--1-2-1--1-4-5-4-3---2-1--1-2-1--1-2-1--1|----------|
C|-2-1--1-2-1--1-2-1--1-4-5-4-3---2-1--1-2-1--1-2-1--1|-4-5-4-3--|
        
D|------------------|
A|------------------|
F|------------------|
C|------------------|
G|------------------|
C|---1--1--1--1--1--|
Tap to rate this tab
# A B C D E F G H I J K L M N O P Q R S T U V W X Y Z