Public Announcement - Lonely tab

----------------------------------------------------------------------------
			                             Lonely - Public Announcement
----------------------------------------------------------------------------

Lonely by Public Announcement

Tabbed by: Mark Cabale
Email: oniel_cabale@yahoo.com

Tuning: Standard Tune



Intro:  A - G - A7sus4 - A7 - E7 (repeat only until A7sus4 and then verse)

   A                G                A7sus4           A7   
e|-------------------------------------------------------------------------|
B|-2-----2-----2----0-----0-----0----3-----3-----3----2-----2-----2--------|
G|---2-----2-----2----0-----0-----0----0-----0-----0----0-----0-----0------|
D|-----2-----2----------0-----0----------2-----2----------2-----2----------|
A|-0-----0-----0---------------------0-----0-----0----0-----0-----0--------|
E|------------------3-----3-----3------------------------------------------|

   E7
e|-------------------------------------|
B|-0-----0-----0-----------------------|
G|---1-----1-----1---------------------|
D|-----0-----0-------------------------|
A|-2-----2-----2-----------------------|
E|-------------------------------------|




[Intro Talking:]
Man... 
Stripped out... 
I Can't keep going like this...
Gonna find me somebody..
Is there anyone out there for me? 
Somewhere...



[Verse 1:]
             A                     G 
I'm sick and tired seeing couples play
        A7sus4       A7          E7
Holding hands in the sun all the day
           A                      G
I love the way that it calls her name
        A7sus4         A7                  E7
I feel the love that's flowing through their veins
       A                       G
Never thought I miss love this way
        A7sus4          A7          E7
Until I woke up with a broken heart today
            A                       G
Singing "Can I get your love back again??"
        A7sus4   A7          E7
I'm going crazy being your friend



[Chorus]
                     A                     G
(Girl I'm lonely) I don't wanna be alone no more
                    A7sus4       A7          E7
(Girl I'm lonely) I need someone to call my own
                    A                            G
(I'm so lonely) Is there someone who cares about me?
                A7sus4   A7          E7
(I'm so lonely) Someone fulfill my needs



[Verse 2:]
I had a good dream that you came back to me
I didn't wanna wait to face reality
But I woke up early longing for you
I hold my pillow tight thinking that it's you
The pain inside it hurts so bad
I just laid back as time goes past
Singing "Can I get your love back again??"
I'm going crazy being your friend



[Chorus: x2]
(Girl I'm lonely) I don't wanna be alone no more
(Girl I'm lonely) I need someone to call my own
(I'm so lonely) Is there someone who cares about me?
(I'm so lonely) Someone fulfill my needs



[Bridge:]
 A             G
 I don't wanna be lonely
 A7sus4     A7          E7
 And I need someone for me
A                 G
 Show I don't wanna be lonely
A7sus4       A7          E7
 I just need someone for me.....


[Chorus: Till Fade]



I'm looking for a tab of this song and I found nothing. So I decided to submit my tab to share 
it to you guys. I hope you like it. Please rate and comment
Tap to rate this tab
 
# A B C D E F G H I J K L M N O P Q R S T U V W X Y Z