Guitaretab - guitar tabs
Song name
# A B C D E F G H I J K L M N O P Q R S T U V W X Y Z

Puff Daddy - Missing You tab

Hey...there's a version of this already, butits difficult 2 play if
u have small hands......so here u go

The tune is basically repeated throughout the song

e-----------------|
B---------0-------|
G-----2-----2---2-|
D---0---0-----0---|   x 2
A-----------------|
E-3---------------|
[ Tab from: http://www.guitaretab.com/p/puff-daddy/127731.html ]
e-----------------|
B-----------------|
G---------0-------|
D-----4-----4---4-|   x 2
A---2---2-----2---|
E-0---------------|

e---------0-------|
B-----3-----3---3-|
G---0---0-----0---|
D-----------------|   x 1
A-3---------------|
E-----------------|

e---------2-------|
B-----3-----3---2-|
G---2---2-----2---|
D-0---------------|   x 1
A-----------------|
E-----------------|

email me........amphetamines_and_jelly_beans@hotmail.com

Vickeeeeeeeeeeeeeeeeeeeeeeeeeeeeeeeeeeeeeeeeeeeee
Related for Missing You tab