Guitaretab - guitar tabs
Song name
# A B C D E F G H I J K L M N O P Q R S T U V W X Y Z
Home / P / Pulkas / Flesh tab

Pulkas - Flesh tab

intro
main riff
            12x
Eb|-------------|
Bb|-------1-----|
Gb|-------1-----|
Db|-0-1-0---3-1-|
Ab|-0-1-0---3-1-|
Db|-0-1-0---3-1-|

verse
               4x              4x
Eb|---------------|---------------|
Bb|---------------|---------------|
Gb|---------------|---------------|
Db|-0-1-0---4-4-4-|-0-1-0---3-3-3-|
Ab|-0-1-0---4-4-4-|-0-1-0---3-3-3-|
Db|-0-1-0---4-4-4-|-0-1-0---3-3-3-|
    - - -           - - -

chorus
                                              2x
Eb|----------------------------------------------|
Bb|----------------------------------------------|
Gb|----------------------------------------------|
Db|-0---1--------0---1--------0---1--------4-3-1-|
Ab|-0---1--------0---1--------0---1--------4-3-1-|
Db|-0---1---12/--0---1---12/--0---1---12/--4-3-1-|

bridge
             2x           1x          1x
Eb|-------------|------------|-----------|
Bb|-------------|------------|-----------|
Gb|-12---13-----|-10--12-----|-8---10----|
Db|-x----x----0-|-x---x----0-|-x---x---0-|
Ab|-10---11---0-|-8---10---0-|-6---8---0-|
Db|-----------0-|----------0-|---------0-|
[ Tab from: http://www.guitaretab.com/p/pulkas/150840.html ]
interlude
                      3x                      1x
Eb|----------------------|----------------------|
Bb|----------------------|----------------------|
Gb|----------------------|----------------------|
Db|----------------------|----------------------|
Ab|-0-0-0--1-1-1--3-3-3--|-4-4-4--3-3-3--1-1-1--|
Db|-0-0-0--1-1-1--3-3-3--|-4-4-4--3-3-3--1-1-1--|
    - - -  - - -  - - -    - - -  - - -  - - -

interlude pt.2
                         3x                          1x
Eb|-------------------------|---------------------------|
Bb|-------------------------|---------------------------|
Gb|-7-7-7--8-8-8--10-10-10--|-11-11-11-10-10-10--8-8-8--|
Db|-x-x-x--x-x-x--x--x--x---|-x--x--x--x--x--x---x-x-x--|
Ab|-5-5-5--6-6-6--8--8--8---|-9--9--9--8--8--8---6-6-6--|
Db|-------------------------|---------------------------|

fill
                  2x
Eb|------------------|
Bb|------------------|
Gb|-8888888888888888-|
Db|-xxxxxxxxxxxxxxxx-|
Ab|-6666666666666666-|
Db|------------------|

interlude pt.3
                              4x
Eb|------------------------------|
Bb|------------------------------|
Gb|-------13-13-13--------8-8-8--|
Db|-0-1-0-12-12-12--0-1-0-7-7-7--|
Ab|-0-1-0-11-11-11--0-1-0-6-6-6--|
Db|-0-1-0-----------0-1-0--------|

fill 2
            4x
Eb|-----------|
Bb|-----------|
Gb|---13----8-|
Db|-0-12--0-7-|
Ab|-0-11--0-6-|
Db|-0-----0---|

outtro
              8x
Eb|-------------|
Bb|-------1-----|
Gb|-------1-----|
Db|-0-1-0---3-1-|
Ab|-0-1-0---3-1-|
Db|-0-1-0---3-1-|