Song name
# A B C D E F G H I J K L M N O P Q R S T U V W X Y Z

Pulley - Over It tab

OVER IT - Pulley


By: jeff    pulley@punk.zzn.com
http://www.punkbands.com/pulley

Intro:  play a few times
|-------------------------------------------------
|-------------------------------------------------
|-5-5-5-5-5---------------------------------------
|-5-5-5-5-5-5-5-5-5-3-3-3-3-3-5-5-5---------------
|-3-3-3-3-3-5-5-5-5-3-3-3-3-3-5-5-5---------------
|-3-3-3-3-3-3-3-3-3-1-1-1-1-1-3-3-3---------------

Verses:  guitar 1
|-12-12-12----12-12-12----12-12-12----12-12-12----
|----------13----------13----------13----------13-
|-------------------------------------------------
|-------------------------------------------------
|-------------------------------------------------
|-------------------------------------------------

Guitar 2 palmutes these chords 
|-13-12-13-13-12-13-               |------
|-------------------               |------
|------------------- x2            |-5--9-
|-------------------               |-5--9-
|-------------------               |-3--7-
|-------------------               |------

Chorus:
|-----------------------------------------
|-----------------------------------------
|-5-5-5-5-5-7-7-7-7-7-5-5-5-5-5-----------
|-5-5-5-5-5-7-7-7-7-7-5-5-5-5-5-3-3-3-3-3-
|-3-3-3-3-3-5-5-5-5-5-3-3-3-3-3-3-3-3-3-3-
|-------------------------------1-1-1-1-1-
Tap to rate this tab
# A B C D E F G H I J K L M N O P Q R S T U V W X Y Z