Song name
# A B C D E F G H I J K L M N O P Q R S T U V W X Y Z

Pulling Teeth - Waiting tab

-----------------------------------------------------------------------------
			     Waiting - Pulling Teeth
-----------------------------------------------------------------------------
Tuning: Drop C# (C#G#C#F#A#D#)

0:00-1:31

D#|-------------0-------------------------------------------|
A#|-------------0-------------------------------------------|
F#|-1-----0-----0---------1-----0---------------------------|
C#|---2-----2---------------2-----2--------2---------4------|
G#|-----2-----2---------------2-----2-2/3-----3-3/5-----5\--|
C#|---------------------------------------------------------|

second guitar starts at 0:35 and it's almost the same:

D#|-------0-------------some--------------------------------|
A#|-------0-------------sweet-------------------------------|
F#|-1---1-0-----------flageolets----------------------------|
C#|---2------------------------------------2---------4------|
G#|-------------------------------------3-----3-3/5-----5\--|
C#|---------------------------------------------------------|

and just two chords from 1:31, 'til the end

D#|-------------------------------------------------------------------------|
A#|-------------------------------------------------------------------------|
F#|-------------------------------------------------------------------------|
C#|-------------------------------------------------------------------------|
G#|-2-2-2-2-2-2-2-2-2-2-2-2-2-2-2-2-2-2-2-2-2-2-2-2-2-2-2-2-2-2-2-2-3-3-2-2-|
C#|-2-2-2-2-2-2-2-2-2-2-2-2-2-2-2-2-2-2-2-2-2-2-2-2-2-2-2-2-2-2-2-2-3-3-2-2-|
    * * * * * * * * * * * * * * * * * * * * * * * * * * * * * * * *


************************************

| *   palm mute
| /   slide up
| \   slide down

************************************
Tap to rate this tab
 
# A B C D E F G H I J K L M N O P Q R S T U V W X Y Z