Song name
# A B C D E F G H I J K L M N O P Q R S T U V W X Y Z

Pulsedriver - Slammin tab

PULSEDRIVER - SLAMMIN'

http://www.discogs.com/artist/Pulsedriver
http://www.pulsedriver.de/

Main riff to the song:
e|------------------------------------------------------|
B|------------------------------------------------------|
G|------------------------------------------------------|
D|------------------------------------------------------|
A|----9-------9p7h9-------9p7-12-12-11-12-11-9-7-7-11---|
E|------9---9-------9---9-------------------------------|

e|----------------------------------------------------------|
B|----------------------------------------------------------|
G|----------------------------------------------------------|
D|----------------------------------------------------------|
A|----9-------9p7h9-------9p7-12-12-11-12-14-12-11-12-11----|
E|------9---9-------9---9-----------------------------------|

Transition part(fast):
e|-------------------------------------------|
B|-------------------------------------------|
G|-------------------------------------------|
D|---14-14-14-14---14-14-14-12-12-14-14-12---|
A|-------------------------------------------|
E|-------------------------------------------|
Tap to rate this tab
 
# A B C D E F G H I J K L M N O P Q R S T U V W X Y Z