Song name
# A B C D E F G H I J K L M N O P Q R S T U V W X Y Z

Pumpjack - High On The Hog tab

play 2x
|----------------------------------------------------------------------------|
|----------------------------------------------------------------------------|
|----------------------------------------------------------------------------|
|----------------------------------------------------------------------------|
|-0-3p0-0-3p0-0-3p0-0-3p0-0-3h5-0-3p0-0-3p0-0-3p0-5-6-7-7--------------------|
|-------------------------------------------------3-4-5-5--------------------|
listen to song to know how many times to play this part
|----------------------------------------------------------------------------|
|----------------------------------------------------------------------------|
|----------------------------------------------------------------------------|
|-----------------------------------------------/8-7-5-----------------------|
|0-0---0-0h3-0h3-0-0---0-0h3-0h3-0-0---0-0h3-0h3/6-5-3-0-0---0-0h3-0h3-0-0---|
|----------------------------------------------------------------------------|

|---------------------------------------------------------------------------|
|---------------------------------------------------------------------------|
|---------------------------------------------------------------------------|
|--------------------------5------------------------------------------------|
|0-0h3-0h3-0-0---0-0h3-0h3-3-5-6-7----\-------------------------------------|
|----------------------------3-4-5----\-------------------------------------|
Tap to rate this tab
 
# A B C D E F G H I J K L M N O P Q R S T U V W X Y Z