Song name
# A B C D E F G H I J K L M N O P Q R S T U V W X Y Z

Punchline - Stop tab

----------------------------------------------------------------------------
                              Punchline - Stop
                               The Rewind EP
----------------------------------------------------------------------------

originally tabbed at punchtabs.com



Eric:
 JesseLaceyIsGod
 ilikesubs123@aol.com




Most of this tab is nearly 100% correct. I have a full midi I made including bass, keys, drums
and vocals, and Chris thought it was dead on. He said he wanted to put it on the Rewind DVD
but obviously that didn't happen.

You might find that the intro is easier to play on the 4th and 5th frets of the D and G strings.
I think that is actually how Paul plays it.

Also unless you are really good at pinch harmonics, the lead guitar in the outro is the correct
fundamental frequencies. If you want to do the pinch harmonics that Paul does, it's possible
to play them there, but its easier to transpose them up.

And one last thing, check out my band's web page at www.thoughtdeposit.com


Paul Guitar 
E :----------------------|----------------|----------------|----------------|
B :------1-1-1-0-0-0-1-1-|1-0-0-0-1-1-0-0-|1-1-1-0-0-0-1-1-|1-0-0-0-1-1-0-0-|
G :------0-0-0-0-0-0-0-0-|0-0-0-0-0-0-0-0-|0-0-0-0-0-0-0-0-|0-0-0-0-0-0-0-0-|
D :----------------------|----------------|----------------|----------------|
A :----------------------|----------------|----------------|----------------|
E :----------------------|----------------|----------------|----------------|

Steve Guitar 
E :----------------|----------------|----------------|----------------|
B :----------------|----------------|----------------|----------------|
G :----------------|----------------|----------------|----------------|
D :----------------|----------------|----------------|----------------|
A :----------------|----------------|----------------|----------------|
E :----------------|----------------|----------------|----------------|

=============================================================================


E :----------------|----------------|----------------|
B :1-1-1-0-0-0-1-1-|1-0-0-0-1-1-0-0-|1-1-1-0-0-0-1-1-|
G :0-0-0-0-0-0-0-0-|0-0-0-0-0-0-0-0-|0-0-0-0-0-0-0-0-|
D :----------------|----------------|----------------|
A :----------------|----------------|----------------|
E :----------------|----------------|----------------|


E :----------------|----------------|----------------|
B :----------------|----------------|----------------|
G :----------------|----------------|----------------|
D :3---------------|5---------------|7---------------|
A :3---------------|5---------------|7---------------|
E :1---------------|3---------------|5---------------|

=============================================================================


E :------------------|----------------|----------------|
B :-1--0-0-0-1-1-0-0-|1-1-1-0-0-0-1-1-|1-0-0-0-1-1-0-0-|
G :-0--0-0-0-0-0-0-0-|0-0-0-0-0-0-0-0-|0-0-0-0-0-0-0-0-|
D :------------------|----------------|----------------|
A :------------------|----------------|----------------|
E :------------------|----------------|----------------|


E :------------------|----------------|----------------|
B :------------------|----------------|----------------|
G :------------------|----------------|----------------|
D :(7)---------------|3---------------|5---------------|
A :(7)---------------|3---------------|5---------------|
E :-0----------------|1---------------|3---------------|

=============================================================================


E :----------------|----------------|----------------|----------------|
B :1-1-1-0-0-0-1-1-|1-0-0-0-1-1-0-0-|1-1-1-0-0-0-1-1-|1-0-0-0-1-1-0-0-|
G :0-0-0-0-0-0-0-0-|0-0-0-0-0-0-0-0-|0-0-0-0-0-0-0-0-|0-0-0-0-0-0-0-0-|
D :----------------|----------------|----------------|----------------|
A :----------------|----------------|----------------|----------------|
E :----------------|----------------|----------------|----------------|


E :----------------|----------------|----------------|----------------|
B :----------------|----------------|----------------|----------------|
G :----------------|----------------|----------------|----------------|
D :7-7-7-7-7-7-7-7-|7-----7-----7---|3-3-3-3-3-3-3-3-|5-5-5-5-5-5-5-5-|
A :7-7-7-7-7-7-7-7-|7-----7-----7---|3-3-3-3-3-3-3-3-|5-5-5-5-5-5-5-5-|
E :5-5-5-5-5-5-5-5-|5-----5-----5---|1-1-1-1-1-1-1-1-|3-3-3-3-3-3-3-3-|

=============================================================================


E :----------------|----------------|----------------|----------------|
B :1-1-1-0-0-0-1-1-|1-0-0-0-1-1-0-0-|1-1-1-0-0-0-1-1-|1-0-0-0-1-1-0-0-|
G :0-0-0-0-0-0-0-0-|0-0-0-0-0-0-0-0-|0-0-0-0-0-0-0-0-|0-0-0-0-0-0-0-0-|
D :----------------|----------------|----------------|----------------|
A :----------------|----------------|----------------|----------------|
E :----------------|----------------|----------------|----------------|


E :----------------|----------------|----------------|----------------|
B :----------------|----------------|----------------|----------------|
G :----------------|----------------|----------------|----------------|
D :7-7-7-7-7-7-7-7-|7-7-7-7-7-7-7-7-|3-3-3-3-3-3-3-3-|5-5-5-5-5-5-5-5-|
A :7-7-7-7-7-7-7-7-|7-7-7-7-7-7-7-7-|3-3-3-3-3-3-3-3-|5-5-5-5-5-5-5-5-|
E :5-5-5-5-5-5-5-5-|5-5-5-5-5-5-5-5-|1-1-1-1-1-1-1-1-|3-3-3-3-3-3-3-3-|

=============================================================================

Time, wont last... 
E :----------------|----------------|----------------|----------------|
B :1-1-1-0-0-0-1-1-|1-0-0-0-1-1-0-0-|1---------------|----------------|
G :0-0-0-0-0-0-0-0-|0-0-0-0-0-0-0-0-|0---------------|----------------|
D :----------------|----------------|----------------|----------------|
A :----------------|----------------|----------------|----------------|
E :----------------|----------------|----------------|----------------|


E :----------------|----------------|----------------|----------------|
B :----------------|----------------|----------------|----------------|
G :----------------|----------------|----------------|----------------|
D :7-7-7-7-7-7-7-7-|7-7-7-7-7-7-7-7-|----------------|----------------|
A :7-7-7-7-7-7-7-7-|7-7-7-7-7-7-7-7-|----------------|----------------|
E :5-5-5-5-5-5-5-5-|5-5-5-5-5-5-5-5-|----------------|----------------|

=============================================================================


E :----------------|----------------|----------------|----------------|
B :----------------|----------------|----------------|----------------|
G :----------------|----------------|----------------|----------------|
D :----------------|----------------|----------------|----------------|
A :----------------|----------------|----------------|----------------|
E :----------------|----------------|----------------|----------------|


E :----------------|----------------|----------------|----------------|
B :----------------|----------------|----------------|----------------|
G :----------------|----------------|----------------|----------------|
D :----------------|----------------|----------------|----------------|
A :----------------|----------------|----------------|----------------|
E :----------------|----------------|----------------|----------------|

=============================================================================

whoa oh whoa oh 
E :----------------|-------------------|----------x---x-----|------x---x-----|
B :----------------|-------------------|----------x---x-----|------x---x-----|
G :----------------|-------------------|----------x---x-----|------x---x-----|
D :----------------|-----------7-7-5-5-|----3-3-3*x---x-3-3-|5-5-5-x---x-5-5-|
A :----------------|-----------7-7-5-5-|----3-3-3*x---x-3-3-|5-5-5-x---x-5-5-|
E :----------------------------5-5-3-3-|----1-1-1*x---x-1-1-|3-3-3-x---x-3-3-|


E :----------------|-------------------|----------x---x-----|------x---x-----|
B :----------------|-------------------|----------x---x-----|------x---x-----|
G :----------------|-------------------|----------x---x-----|------x---x-----|
D :----------------|-----------7-7-5-5-|----3-3-3*x---x-3-3-|5-5-5-x---x-5-5-|
A :----------------|-----------7-7-5-5-|----3-3-3*x---x-3-3-|5-5-5-x---x-5-5-|
E :----------------------------5-5-3-3-|----1-1-1*x---x-1-1-|3-3-3-x---x-3-3-|

=============================================================================


E :------x---x-----|------x---x-----|------x---x-----|------x---x-----|
B :------x---x-----|------x---x-----|------x---x-----|------x---x-----|
G :------x---x-----|------x---x-----|------x---x-----|------x---x-----|
D :7-7-7-x---x-7-7-|7-7-7-x---x-7-5-|3-3-3*x---x-3-3-|5-5-5-x---x-5-5-|
A :7-7-7-x---x-7-7-|7-7-7-x---x-7-5-|3-3-3*x---x-3-3-|5-5-5-x---x-5-5-|
E :5-5-5-x---x-5-5-|5-5-5-x---x-5-3-|1-1-1*x---x-1-1-|3-3-3-x---x-3-3-|


E :------x---x--------|------x---x-----|------x---x-------------|------x---x-----|
B :------x---x--------|------x---x-----|------x---x-------------|------x---x-----|
G :------x---x--------|------x---x-----|------x---x-------------|------x---x-----|
D :7-7-7-x---x-7-7----|7-7-7-x---x-7-5-|3-3-3*x---x-3-3---------|5-5-5-x---x-5-5-|
A :7-7-7-x---x-7-7----|7-7-7-x---x-7-5-|3-3-3*x---x-3-3---------|5-5-5-x---x-5-5-|
E :5-5-5-x---x-5-5----|5-5-5-x---x-5-3-|1-1-1*x---x-1-1---------|3-3-3-x---x-3-3-|

=============================================================================

62 degrees... 
E :------x---x-----|------x---x-x-x--------|----------------|------3---1-0---|
B :------x---x-----|------x---x-x-x--------|----------0-1---|--------------3-|
G :------x---x-----|------x---x-x-x--------|2-------2-----0-|0---------------|
D :7-7-7-x---x-7-7-|7-7-7-x---x-x-x--------|----------------|----------------|
A :7-7-7-x---x-7-7-|7-7-7-x---x-x-x--------|----------------|----------------|
E :5-5-5-x---x-5-5-|5-5-5-x---x-x-x--------|----------------|----------------|


E :------x---x-----|------x---x-x-x-|----------------|----------------|
B :------x---x-----|------x---x-x-x-|----------------|----------------|
G :------x---x-----|------x---x-x-x-|----------------|----------------|
D :7-7-7-x---x-7-7-|7-7-7-x---x-x-x-|----------------|----------------|
A :7-7-7-x---x-7-7-|7-7-7-x---x-x-x-|----------------|----------------|
E :5-5-5-x---x-5-5-|5-5-5-x---x-x-x-|----------------|----------------|

=============================================================================


E :-----------3---1|--0-------------|-----------------|----------------|
B :1-----1-1-------|------1---------|--------0-1------|----------------|
G :----------------|----------------|2----------------|0---------------|
D :----------------|----------------|-----------------|----------------|
A :----------------|----------------|-----------------|----------------|
E :----------------|----------------|-----------------|----------------|


E :----------------|----------------|-----------------|----------------|
B :----------------|----------------|-----------------|----------------|
G :----------------|----------------|-----------------|----------------|
D :----------------|----------------|-----------------|----------------|
A :----------------|----------------|-----------------|----------------|
E :----------------|----------------|-----------------|----------------|

=============================================================================


E :----------------|----------------|----------------|------3---1-0---|
B :----------------|----------------|----------0-1---|--------------3-|
G :2---0-----------|----------------|2-------2-----0-|0---------------|
D :------2---0-----|----------------|----------------|----------------|
A :------------3---|----------------|----------------|----------------|
E :----------------|----------------|----------------|----------------|


E :----------------|----------------|----------------|----------------|
B :----------------|----------------|----------------|----------------|
G :----------------|----------------|----------------|----------------|
D :----------------|----------------|----------------|----------------|
A :----------------|----------------|----------------|----------------|
E :----------------|----------------|----------------|----------------|

=============================================================================


E :----------3---1-|--0-------------|------------------|
B :1-----1-1-------|------1---------|--------0-h1------|
G :----------------|----------------|2-----------------|
D :----------------|----------------|------------------|
A :----------------|----------------|------------------|
E :----------------|----------------|------------------|


E :----------------|----------------|------------------|
B :----------------|----------------|------------------|
G :----------------|----------------|------------------|
D :----------------|----------------|------------------|
A :----------------|----------------|------------------|
E :----------------|----------------|------------------|

=============================================================================

Before I give... 
E :----------------|----------------|----------------|----------------|
B :----------------|----------------|----------------|----------------|
G :0---------------|2---0-----------|----------------|5---5-5-5---5-5-|
D :----------------|------2---0-----|----------------|5---5-5-5---5-5-|
A :----------------|------------3---|----------------|3---3-3-3---3-3-|
E :----------------|----------------|----------------|----------------|


E :----------------|----------------|----------------|----------------|
B :----------------|----------------|----------------|----------------|
G :----------------|----------------|----------------|5---5-5-5---5-5-|
D :----------------|----------------|----------------|5---5-5-5---5-5-|
A :----------------|----------------|----------------|3---3-3-3---3-3-|
E :----------------|----------------|----------------|----------------|

=============================================================================


E :----------------|----------------|----------------|----------------|
B :----------------|----------------|----------------|----------------|
G :----------------|----------------|----------------|5---5-5-5---5-5-|
D :5-5-5-5-5---5-5-|3-3-3-3-3---3-3-|3-3-3-3-3---3-3-|5---5-5-5---5-5-|
A :5-5-5-5-5---5-5-|3-3-3-3-3---3-3-|3-3-3-3-3---3-3-|3---3-3-3---3-3-|
E :3-3-3-3-3---3-3-|1-1-1-1-1---1-1-|1-1-1-1-1---1-1-|----------------|


E :----------------|----------------|----------------|----------------|
B :----------------|----------------|----------------|----------------|
G :----------------|----------------|----------------|5---5-5-5---5-5-|
D :5-5-5-5-5---5-5-|3-3-3-3-3---3-3-|3-3-3-3-3---3-3-|5---5-5-5---5-5-|
A :5-5-5-5-5---5-5-|3-3-3-3-3---3-3-|3-3-3-3-3---3-3-|3---3-3-3---3-3-|
E :3-3-3-3-3---3-3-|1-1-1-1-1---1-1-|1-1-1-1-1---1-1-|----------------|

=============================================================================


E :----------------|----------------|----------------|----------------|
B :----------------|----------------|----------------|----------------|
G :----------------|----------------|----------------|5---5-5-5---5-5-|
D :5-5-5-5-5---5-5-|3-3-3-3-3---3-3-|3-3-3-3-3---3-3-|5---5-5-5---5-5-|
A :5-5-5-5-5---5-5-|3-3-3-3-3---3-3-|3-3-3-3-3---3-3-|3---3-3-3---3-3-|
E :3-3-3-3-3---3-3-|1-1-1-1-1---1-1-|1-1-1-1-1---1-1-|----------------|


E :----------------|----------------|----------------|----------------|
B :----------------|----------------|----------------|----------------|
G :----------------|----------------|----------------|5---5-5-5---5-5-|
D :5-5-5-5-5---5-5-|3-3-3-3-3---3-3-|3-3-3-3-3---3-3-|5---5-5-5---5-5-|
A :5-5-5-5-5---5-5-|3-3-3-3-3---3-3-|3-3-3-3-3---3-3-|3---3-3-3---3-3-|
E :3-3-3-3-3---3-3-|1-1-1-1-1---1-1-|1-1-1-1-1---1-1-|----------------|

=============================================================================


E :----------------|----------------|----------------|----------------|
B :----------------|----------------|----------------|----------------|
G :----------------|----------------|----------------|----------------|
D :5-5-5-5-5---5-5-|3-3-3-3-3---3-3-|3-3-3-3-3---3-3-|7-7-7-7-7---7-7-|
A :5-5-5-5-5---5-5-|3-3-3-3-3---3-3-|3-3-3-3-3---3-3-|7-7-7-7-7---7-7-|
E :3-3-3-3-3---3-3-|1-1-1-1-1---1-1-|1-1-1-1-1---1-1-|5-5-5-5-5---5-5-|


E :----------------|----------------|----------------|----------------|
B :----------------|----------------|----------------|----------------|
G :----------------|----------------|----------------|----------------|
D :5-5-5-5-5---5-5-|3-3-3-3-3---3-3-|3-3-3-3-3---3-3-|7-7-7-7-7---7-7-|
A :5-5-5-5-5---5-5-|3-3-3-3-3---3-3-|3-3-3-3-3---3-3-|7-7-7-7-7---7-7-|
E :3-3-3-3-3---3-3-|1-1-1-1-1---1-1-|1-1-1-1-1---1-1-|5-5-5-5-5---5-5-|

=============================================================================


E :----------------|----------------|----------------|----------------|
B :----------------|----------------|----------------|----------------|
G :----------------|----------------|----------------|----------------|
D :5-5-5-5-5---5-5-|3-3-3-3-3---3-3-|3-3-3-3-3---3-3-|7-7-7-7-7---7-7-|
A :5-5-5-5-5---5-5-|3-3-3-3-3---3-3-|3-3-3-3-3---3-3-|7-7-7-7-7---7-7-|
E :3-3-3-3-3---3-3-|1-1-1-1-1---1-1-|1-1-1-1-1---1-1-|5-5-5-5-5---5-5-|


E :----------------|----------------|----------------|----------------|
B :----------------|----------------|----------------|----------------|
G :----------------|----------------|----------------|----------------|
D :5-5-5-5-5---5-5-|3-3-3-3-3---3-3-|3-3-3-3-3---3-3-|7-7-7-7-7---7-7-|
A :5-5-5-5-5---5-5-|3-3-3-3-3---3-3-|3-3-3-3-3---3-3-|7-7-7-7-7---7-7-|
E :3-3-3-3-3---3-3-|1-1-1-1-1---1-1-|1-1-1-1-1---1-1-|5-5-5-5-5---5-5-|

=============================================================================


E :----------------|----------------|----------------|----------------|
B :----------------|----------------|----------------|1-1-1-0-0-0-1-1-|
G :----------------|----------------|----------------|0-0-0-0-0-0-0-0-|
D :5-5-5-5-5---5-5-|3-3-3-3-3---3-3-|3-3-3-3-3-3-3-3-|*---------------|
A :5-5-5-5-5---5-5-|3-3-3-3-3---3-3-|3-3-3-3-3-3-3-3-|*---------------|
E :3-3-3-3-3---3-3-|1-1-1-1-1---1-1-|1-1-1-1-1-1-1-1-|*---------------|


E :----------------|----------------|----------------|----------------|
B :----------------|----------------|----------------|----------------|
G :----------------|----------------|----------------|----------------|
D :5-5-5-5-5---5-5-|3-3-3-3-3---3-3-|3-3-3-3-3-3-3-3-|3-3-3-3-3-3-3-3-|
A :5-5-5-5-5---5-5-|3-3-3-3-3---3-3-|3-3-3-3-3-3-3-3-|3-3-3-3-3-3-3-3-|
E :3-3-3-3-3---3-3-|1-1-1-1-1---1-1-|1-1-1-1-1-1-1-1-|1-1-1-1-1-1-1-1-|

=============================================================================


E :----------------|----------------|----------------|----------------|
B :1-0-0-0-1-1-0-0-|1-1-1-0-0-0-1-1-|1-0-0-0-1-1-0-0-|1-1-1-0-0-0-1-1-|
G :0-0-0-0-0-0-0-0-|0-0-0-0-0-0-0-0-|0-0-0-0-0-0-0-0-|0-0-0-0-0-0-0-0-|
D :----------------|----------------|----------------|----------------|
A :----------------|----------------|----------------|----------------|
E :----------------|----------------|----------------|----------------|


E :----------------|----------------|----------------|----------------|
B :----------------|----------------|----------------|----------------|
G :----------------|----------------|----------------|----------------|
D :5-5-5-5-5-5-5-5-|7-7-7-7-7-7-7-7-|7-7-7-7-7-7-7-7-|3-3-3-3-3-3-3-3-|
A :5-5-5-5-5-5-5-5-|7-7-7-7-7-7-7-7-|7-7-7-7-7-7-7-7-|3-3-3-3-3-3-3-3-|
E :3-3-3-3-3-3-3-3-|5-5-5-5-5-5-5-5-|5-5-5-5-5-5-5-5-|1-1-1-1-1-1-1-1-|

=============================================================================

I blame you... 
E :----------------|----------------|----------------|----------------|
B :1-0-0-0-1-1-0-0-|1-1-1-0-0-0-1-1-|1-0-0-0-1-1-0-0-|1---------------|
G :0-0-0-0-0-0-0-0-|0-0-0-0-0-0-0-0-|0-0-0-0-0-0-0-0-|0---------------|
D :----------------|----------------|----------------|----------------|
A :----------------|----------------|----------------|----------------|
E :----------------|----------------|----------------|----------------|


E :----------------|----------------|----------------|----------------|
B :----------------|----------------|----------------|----------------|
G :----------------|----------------|----------------|----------------|
D :5-5-5-5-5-5-5-5-|7-7-7-7-7-7-7-7-|7-7-7-7-7-7-7-7-|----------------|
A :5-5-5-5-5-5-5-5-|7-7-7-7-7-7-7-7-|7-7-7-7-7-7-7-7-|----------------|
E :3-3-3-3-3-3-3-3-|5-5-5-5-5-5-5-5-|5-5-5-5-5-5-5-5-|----------------|

=============================================================================

E :----------------|----------------|----------------|------x---x-----|
B :----------------|----------------|----------------|------x---x-----|
G :----------------|----------------|----------------|------x---x-----|
D :----------------|----------------|--------7-7-5-5-|3-3-3*x---x-3-3-|
A :----------------|----------------|--------7-7-5-5-|3-3-3*x---x-3-3-|
E :----------------|----------------|--------5-5-3-3-|1-1-1*x---x-1-1-|


E :----------------|----------------|----------------|------x---x-----|
B :----------------|----------------|----------------|------x---x-----|
G :----------------|----------------|----------------|------x---x-----|
D :----------------|----------------|--------7-7-5-5-|3-3-3*x---x-3-3-|
A :----------------|----------------|--------7-7-5-5-|3-3-3*x---x-3-3-|
E :----------------|----------------|--------5-5-3-3-|1-1-1*x---x-1-1-|

=============================================================================


E :------x---x-----|------x---x-----|------x---x-----|------x---x-----|
B :------x---x-----|------x---x-----|------x---x-----|------x---x-----|
G :------x---x-----|------x---x-----|------x---x-----|------x---x-----|
D :5-5-5-x---x-5-5-|7-7-7-x---x-7-7-|7-7-7-x---x-7-5-|3-3-3*x---x-3-3-|
A :5-5-5-x---x-5-5-|7-7-7-x---x-7-7-|7-7-7-x---x-7-5-|3-3-3*x---x-3-3-|
E :3-3-3-x---x-3-3-|5-5-5-x---x-5-5-|5-5-5-x---x-5-3-|1-1-1*x---x-1-1-|


E :------x---x-----|------x---x-----|------x---x-----|------x---x-----|
B :------x---x-----|------x---x-----|------x---x-----|------x---x-----|
G :------x---x-----|------x---x-----|------x---x-----|------x---x-----|
D :5-5-5-x---x-5-5-|7-7-7-x---x-7-7-|7-7-7-x---x-7-5-|3-3-3*x---x-3-3-|
A :5-5-5-x---x-5-5-|7-7-7-x---x-7-7-|7-7-7-x---x-7-5-|3-3-3*x---x-3-3-|
E :3-3-3-x---x-3-3-|5-5-5-x---x-5-5-|5-5-5-x---x-5-3-|1-1-1*x---x-1-1-|

=============================================================================


E :------x---x-----|------x---x-----|------x---x-x-x-|----------------|
B :------x---x-----|------x---x-----|------x---x-x-x-|----------------|
G :------x---x-----|------x---x-----|------x---x-x-x-|----------------|
D :5-5-5-x---x-5-5-|7-7-7-x---x-7-7-|7-7-7-x---x-x-x-|3---------------|
A :5-5-5-x---x-5-5-|7-7-7-x---x-7-7-|7-7-7-x---x-x-x-|3---------------|
E :3-3-3-x---x-3-3-|5-5-5-x---x-5-5-|5-5-5-x---x-x-x-|1---------------|


E :------x---x-----|------x---x-----|------x---x-x-x-|----------------|
B :------x---x-----|------x---x-----|------x---x-x-x-|----------------|
G :------x---x-----|------x---x-----|------x---x-x-x-|----------------|
D :5-5-5-x---x-5-5-|7-7-7-x---x-7-7-|7-7-7-x---x-x-x-|3---------------|
A :5-5-5-x---x-5-5-|7-7-7-x---x-7-7-|7-7-7-x---x-x-x-|3---------------|
E :3-3-3-x---x-3-3-|5-5-5-x---x-5-5-|5-5-5-x---x-x-x-|1---------------|

=============================================================================


E :----------------|----------------|----------------|----------------|
B :----------------|----------------|----------------|----------0-1---|
G :----------------|----------------|----------------|2-------2-----0-|
D :----------------|----------------|----------------|----------------|
A :----------------|----------------|----------------|----------------|
E :----------------|----------------|----------------|----------------|


E :----------------|----------------|----------------|----------------|
B :----------------|----------------|----------------|----------------|
G :----------------|----------------|----------------|----------------|
D :----------------|----------------|----------------|----------------|
A :----------------|----------------|----------------|----------------|
E :----------------|----------------|----------------|----------------|

=============================================================================


E :------3---1-0---|----------3---1-|--0-------------|
B :--------------3-|1-----1-1-------|------1---------|
G :0---------------|----------------|----------------|
D :----------------|----------------|----------------|
A :----------------|----------------|----------------|
E :----------------|----------------|----------------|


E :----------------|----------------|----------------|
B :----------------|----------------|----------------|
G :----------------|----------------|----------------|
D :----------------|----------------|----------------|
A :----------------|----------------|----------------|
E :----------------|----------------|----------------|

=============================================================================


E :------------------|----------------|----------------|
B :--------0-h1------|----------------|----------------|
G :2-----------------|0---------------|2---0-----------|
D :------------------|----------------|------2---0-----|
A :------------------|----------------|------------3---|
E :------------------|----------------|----------------|


E :------------------|----------------|----------------|
B :------------------|----------------|----------------|
G :------------------|----------------|----------------|
D :------------------|----------------|----------------|
A :------------------|----------------|----------------|
E :------------------|----------------|----------------|

=============================================================================


E :----------------|----------------|----------------|----------------|
B :----------------|----------------|----------------|----------------|
G :----------------|----------------|----------------|----------------|
D :----------------|7-7-7-7-7---7-7-|5-5-5-5-5---5-5-|3-3-3-3-3---3-3-|
A :----------------|7-7-7-7-7---7-7-|5-5-5-5-5---5-5-|3-3-3-3-3---3-3-|
E :----------------|5-5-5-5-5---5-5-|3-3-3-3-3---3-3-|1-1-1-1-1---1-1-|


E :----------------|----------------|----------------|----------------|
B :----------------|----------------|----------------|----------------|
G :----------------|----------------|----------------|----------------|
D :----------------|7-7-7-7-7---7-7-|5-5-5-5-5---5-5-|3-3-3-3-3---3-3-|
A :----------------|7-7-7-7-7---7-7-|5-5-5-5-5---5-5-|3-3-3-3-3---3-3-|
E :----------------|5-5-5-5-5---5-5-|3-3-3-3-3---3-3-|1-1-1-1-1---1-1-|

=============================================================================


E :----------------------------|----------------|----------------|
B :----------------------------|----------------|----------------|
G :----------------------------|----------------|----------------|
D :3--3--3--3--7-7-7-7-7---7-7-|5-5-5-5-5---5-5-|3-3-3-3-3---3-3-|
A :3--3--3--3--7-7-7-7-7---7-7-|5-5-5-5-5---5-5-|3-3-3-3-3---3-3-|
E :1--1--1--1--5-5-5-5-5---5-5-|3-3-3-3-3---3-3-|1-1-1-1-1---1-1-|


E :----------------------------|----------------|----------------|
B :----------------------------|----------------|----------------|
G :----------------------------|----------------|----------------|
D :3--3--3--3--7-7-7-7-7---7-7-|5-5-5-5-5---5-5-|3-3-3-3-3---3-3-|
A :3--3--3--3--7-7-7-7-7---7-7-|5-5-5-5-5---5-5-|3-3-3-3-3---3-3-|
E :1--1--1--1--5-5-5-5-5---5-5-|3-3-3-3-3---3-3-|1-1-1-1-1---1-1-|

=============================================================================


E :----------------|----------------|----------------|----------------|
B :----------------|----------------|----------------|----------------|
G :----------------|5---5-5-5---5-5-|----------------|----------------|
D :3-3-3-3-3-3-3-3-|5---5-5-5---5-5-|5-5-5-5-5---5-5-|3-3-3-3-3---3-3-|
A :3-3-3-3-3-3-3-3-|3---3-3-3---3-3-|5-5-5-5-5---5-5-|3-3-3-3-3---3-3-|
E :1-1-1-1-1-1-1-1-|----------------|3-3-3-3-3---3-3-|1-1-1-1-1---1-1-|


E :----------------|----------------|----------------|----------------|
B :----------------|----------------|----------------|----------------|
G :----------------|5---5-5-5---5-5-|----------------|----------------|
D :3-3-3-3-3-3-3-3-|5---5-5-5---5-5-|5-5-5-5-5---5-5-|3-3-3-3-3---3-3-|
A :3-3-3-3-3-3-3-3-|3---3-3-3---3-3-|5-5-5-5-5---5-5-|3-3-3-3-3---3-3-|
E :1-1-1-1-1-1-1-1-|----------------|3-3-3-3-3---3-3-|1-1-1-1-1---1-1-|

=============================================================================


E :----------------|----------------|----------------|----------------|
B :----------------|----------------|----------------|----------------|
G :----------------|5---5-5-5---5-5-|----------------|----------------|
D :3-3-3-3-3---3-3-|5---5-5-5---5-5-|5-5-5-5-5---5-5-|3-3-3-3-3---3-3-|
A :3-3-3-3-3---3-3-|3---3-3-3---3-3-|5-5-5-5-5---5-5-|3-3-3-3-3---3-3-|
E :1-1-1-1-1---1-1-|----------------|3-3-3-3-3---3-3-|1-1-1-1-1---1-1-|


E :----------------|----------------|----------------|----------------|
B :----------------|----------------|----------------|----------------|
G :----------------|5---5-5-5---5-5-|----------------|----------------|
D :3-3-3-3-3---3-3-|5---5-5-5---5-5-|5-5-5-5-5---5-5-|3-3-3-3-3---3-3-|
A :3-3-3-3-3---3-3-|3---3-3-3---3-3-|5-5-5-5-5---5-5-|3-3-3-3-3---3-3-|
E :1-1-1-1-1---1-1-|----------------|3-3-3-3-3---3-3-|1-1-1-1-1---1-1-|

=============================================================================


E :----------------|----------------|----------------|----------------|
B :----------------|----------------|----------------|----------------|
G :----------------|5---5-5-5---5-5-|----------------|----------------|
D :3-3-3-3-3---3-3-|5---5-5-5---5-5-|5-5-5-5-5---5-5-|3-3-3-3-3---3-3-|
A :3-3-3-3-3---3-3-|3---3-3-3---3-3-|5-5-5-5-5---5-5-|3-3-3-3-3---3-3-|
E :1-1-1-1-1---1-1-|----------------|3-3-3-3-3---3-3-|1-1-1-1-1---1-1-|


E :----------------|----------------|----------------|----------------|
B :----------------|----------------|----------------|----------------|
G :----------------|5---5-5-5---5-5-|----------------|----------------|
D :3-3-3-3-3---3-3-|5---5-5-5---5-5-|5-5-5-5-5---5-5-|3-3-3-3-3---3-3-|
A :3-3-3-3-3---3-3-|3---3-3-3---3-3-|5-5-5-5-5---5-5-|3-3-3-3-3---3-3-|
E :1-1-1-1-1---1-1-|----------------|3-3-3-3-3---3-3-|1-1-1-1-1---1-1-|

=============================================================================


E :----------------|----------------|----------------|----------------|
B :----------------|----------------|----------------|----------------|
G :----------------|----------------|----------------|----------------|
D :3-3-3-3-3---3-3-|7-7-7-7-7---7-7-|5-5-5-5-5---5-5-|3-3-3-3-3---3-3-|
A :3-3-3-3-3---3-3-|7-7-7-7-7---7-7-|5-5-5-5-5---5-5-|3-3-3-3-3---3-3-|
E :1-1-1-1-1---1-1-|5-5-5-5-5---5-5-|3-3-3-3-3---3-3-|1-1-1-1-1---1-1-|


E :----------------|----------------|----------------|----------------|
B :----------------|----------------|----------------|----------------|
G :----------------|----------------|----------------|----------------|
D :3-3-3-3-3---3-3-|7-7-7-7-7---7-7-|5-5-5-5-5---5-5-|3-3-3-3-3---3-3-|
A :3-3-3-3-3---3-3-|7-7-7-7-7---7-7-|5-5-5-5-5---5-5-|3-3-3-3-3---3-3-|
E :1-1-1-1-1---1-1-|5-5-5-5-5---5-5-|3-3-3-3-3---3-3-|1-1-1-1-1---1-1-|

=============================================================================


E :----------------|----------------|----------------|----------------|
B :----------------|----------------|----------------|----------------|
G :----------------|----------------|----------------|----------------|
D :3-3-3-3-3---3-3-|7-7-7-7-7---7-7-|5-5-5-5-5---5-5-|3-3-3-3-3---3-3-|
A :3-3-3-3-3---3-3-|7-7-7-7-7---7-7-|5-5-5-5-5---5-5-|3-3-3-3-3---3-3-|
E :1-1-1-1-1---1-1-|5-5-5-5-5---5-5-|3-3-3-3-3---3-3-|1-1-1-1-1---1-1-|


E :----------------|----------------|----------------|----------------|
B :----------------|----------------|----------------|----------------|
G :----------------|----------------|----------------|----------------|
D :3-3-3-3-3---3-3-|7-7-7-7-7---7-7-|5-5-5-5-5---5-5-|3-3-3-3-3---3-3-|
A :3-3-3-3-3---3-3-|7-7-7-7-7---7-7-|5-5-5-5-5---5-5-|3-3-3-3-3---3-3-|
E :1-1-1-1-1---1-1-|5-5-5-5-5---5-5-|3-3-3-3-3---3-3-|1-1-1-1-1---1-1-|

=============================================================================


E :----------------|----------------|----------------|----------------|
B :----------------|----------------|----------------|----------------|
G :----------------|----------------|----------------|----------------|
D :3-3-3-3-3-3-3-3-|7-7-7-7-7-7-7-7-|7-7-7-7-7-7-7-7-|5-5-5-5-5-5-5-5-|
A :3-3-3-3-3-3-3-3-|7-7-7-7-7-7-7-7-|7-7-7-7-7-7-7-7-|5-5-5-5-5-5-5-5-|
E :1-1-1-1-1-1-1-1-|5-5-5-5-5-5-5-5-|5-5-5-5-5-5-5-5-|3-3-3-3-3-3-3-3-|


E :----------------|----------------|----------------|----------------|
B :----------------|----------------|----------------|----------------|
G :----------------|----------------|----------------|----------------|
D :3-3-3-3-3-3-3-3-|7-7-7-7-7-7-7-7-|7-7-7-7-7-7-7-7-|5-5-5-5-5-5-5-5-|
A :3-3-3-3-3-3-3-3-|7-7-7-7-7-7-7-7-|7-7-7-7-7-7-7-7-|5-5-5-5-5-5-5-5-|
E :1-1-1-1-1-1-1-1-|5-5-5-5-5-5-5-5-|5-5-5-5-5-5-5-5-|3-3-3-3-3-3-3-3-|

=============================================================================


E :----------------|----------------|----------------|----------------|
B :----------------|----------------|----------------|----------------|
G :----------------|----------------|----------------|----------------|
D :5-5-5-5-5-5-5-5-|7-7-7-7-7-7-7-7-|7-7-7-7-7-7-7-7-|3-3-3-3-3-3-3-3-|
A :5-5-5-5-5-5-5-5-|7-7-7-7-7-7-7-7-|7-7-7-7-7-7-7-7-|3-3-3-3-3-3-3-3-|
E :3-3-3-3-3-3-3-3-|5-5-5-5-5-5-5-5-|5-5-5-5-5-5-5-5-|1-1-1-1-1-1-1-1-|


E :----------------|----------------|----------------|----------------|
B :----------------|----------------|----------------|----------------|
G :----------------|----------------|----------------|----------------|
D :5-5-5-5-5-5-5-5-|7-7-7-7-7-7-7-7-|7-7-7-7-7-7-7-7-|3-3-3-3-3-3-3-3-|
A :5-5-5-5-5-5-5-5-|7-7-7-7-7-7-7-7-|7-7-7-7-7-7-7-7-|3-3-3-3-3-3-3-3-|
E :3-3-3-3-3-3-3-3-|5-5-5-5-5-5-5-5-|5-5-5-5-5-5-5-5-|1-1-1-1-1-1-1-1-|

=============================================================================


E :----------------|----------------|----------------|----------------|
B :----------------|----------------|----------------|----------------|
G :----------------|----------------|----------------|7-7-7-7-7-7-7-7-|
D :3-3-3-3-3-3-3-3-|7-7-7-7-7-7-7-7-|7-7-7-7-7-7-7-7-|7-7-7-7-7-7-7-7-|
A :3-3-3-3-3-3-3-3-|7-7-7-7-7-7-7-7-|7-7-7-7-7-7-7-7-|5-5-5-5-5-5-5-5-|
E :1-1-1-1-1-1-1-1-|5-5-5-5-5-5-5-5-|5-5-5-5-5-5-5-5-|*---------------|


E :----------------|----------------|----------------|----------------|
B :----------------|----------------|----------------|----------------|
G :----------------|----------------|----------------|7-7-7-7-7-7-7-7-|
D :3-3-3-3-3-3-3-3-|7-7-7-7-7-7-7-7-|7-7-7-7-7-7-7-7-|7-7-7-7-7-7-7-7-|
A :3-3-3-3-3-3-3-3-|7-7-7-7-7-7-7-7-|7-7-7-7-7-7-7-7-|5-5-5-5-5-5-5-5-|
E :1-1-1-1-1-1-1-1-|5-5-5-5-5-5-5-5-|5-5-5-5-5-5-5-5-|*---------------|

=============================================================================


E :----------------|----------------|----------------|----------------|
B :----------------|1---------------|----------------|----------------|
G :7-7-7-7-7-7-7-7-|0---------------|----------------|----------------|
D :7-7-7-7-7-7-7-7-|----------------|----------------|----------------|
A :5-5-5-5-5-5-5-5-|----------------|----------------|----------------|
E :----------------|----------------|----------------|----------------|


E :----------------|----------------|----------------|----------------|
B :----------------|----------------|----------------|----------------|
G :7-7-7-7-7-7-7-7-|----------------|----------------|----------------|
D :7-7-7-7-7-7-7-7-|3-3-3-3-3-3-3-3-|5-5-5-5-5-5-5-5-|7-7-7-7-7-7-7-7-|
A :5-5-5-5-5-5-5-5-|3-3-3-3-3-3-3-3-|5-5-5-5-5-5-5-5-|7-7-7-7-7-7-7-7-|
E :----------------|1-1-1-1-1-1-1-1-|3-3-3-3-3-3-3-3-|5-5-5-5-5-5-5-5-|

=============================================================================


E :----------------|----------------|----------------|----------------|
B :----------------|----------------|----------------|----------------|
G :----------------|----------------|----------------|----------------|
D :----------------|----------------|----------------|----------------|
A :----------------|----------------|----------------|----------------|
E :----------------|----------------|----------------|----------------|


E :----------------|----------------|----------------|----------------|
B :----------------|----------------|----------------|----------------|
G :----------------|----------------|----------------|----------------|
D :7-7-7-7-7-7-7-7-|3-3-3-3-3-3-3-3-|5-5-5-5-5-5-5-5-|7*--------------|
A :7-7-7-7-7-7-7-7-|3-3-3-3-3-3-3-3-|5-5-5-5-5-5-5-5-|7*--------------|
E :5-5-5-5-5-5-5-5-|1-1-1-1-1-1-1-1-|3-3-3-3-3-3-3-3-|5*--------------|

=============================================================================


E :----------------|----------------|----------------|
B :----------------|----------------|----------------|
G :----------------|----------------|----------------|
D :----------------|----------------|----------------|
A :----------------|----------------|----------------|
E :----------------|----------------|----------------|


E :----------------|----------------|----------------|
B :----------------|----------------|----------------|
G :----------------|----------------|----------------|
D :----------------|3---------------|5---------------|
A :----------------|3---------------|5---------------|
E :----------------|1---------------|3---------------|

=============================================================================


E :------------------|----------------|----------------|
B :------------------|----------------|----------------|
G :12-------14-------|9-------7-------|5---------------|
D :------------------|----------------|----------------|
A :10-------12-------|7-------5-------|3---------------|
E :------------------|----------------|----------------|


E :------------------|----------------|----------------|
B :------------------|----------------|----------------|
G :----------5-------|----------------|----------------|
D :-7--------5-------|5-------2-------|3---------------|
A :-7--------3-------|5-------2-------|3---------------|
E :-5----------------|3-------0-------|1---------------|

=============================================================================


E :----------------|----------------|----------------|------0---------|
B :----------------|----------------|----------------|------------1---|
G :----------------|7---------------|----------------|----------------|
D :----------------|----------------|----------------|----------------|
A :----------------|5---------------|----------------|3---------------|
E :----------------|----------------|----------------|----------------|


E :----------------|----------------|----------------|----------------|
B :----------------|----------------|----------------|----------------|
G :----------------|----------------|----------------|----------------|
D :----------------|5---------------|----------------|----------------|
A :----------------|5---------------|----------------|3---------------|
E :----------------|3---------------|----------------|----------------|

=============================================================================


E :------0---------|------0---------|------0---------|------0---------|
B :------------1---|------------1---|3-----------1---|------------1---|
G :----------------|----------------|----------------|----------------|
D :----------------|----------------|----------------|----------------|
A :----------------|----------------|----------------|3---------------|
E :3---------------|1---------------|----------------|----------------|


E :----------------|----------------|----------------|----------------|
B :----------------|----------------|----------------|----------------|
G :----------------|----------------|----------------|----------------|
D :----------------|----------------|----------------|----------------|
A :----------------|----------------|----------------|----------------|
E :----------------|----------------|----------------|----------------|

=============================================================================


E :------0---------|------0---------|------0---------|------0---------|
B :------------1---|------------1---|3-----------1---|------------1---|
G :----------------|----------------|----------------|----------------|
D :----------------|----------------|----------------|----------------|
A :----------------|----------------|----------------|3---------------|
E :3---------------|1---------------|----------------|----------------|


E :----------------|----------------|----------------|----------------|
B :----------------|----------------|----------------|----------------|
G :----------------|----------------|----------------|----------------|
D :----------------|----------------|----------------|----------------|
A :----------------|----------------|----------------|3---------------|
E :----------------|----------------|----------------|----------------|

=============================================================================


E :------0---------|------0---------|------0---------|------0---------|
B :------------1---|------------1---|3-----------1---|------------1---|
G :----------------|----------------|----------------|----------------|
D :----------------|----------------|----------------|----------------|
A :----------------|----------------|----------------|3---------------|
E :3---------------|1---------------|----------------|----------------|


E :----------------|----------------|----------------|----------------|
B :----------------|----------------|----------------|----------------|
G :----------------|----------------|----------------|----------------|
D :----------------|----------------|----------------|----------------|
A :----------------|----------------|----------------|----------------|
E :----------------|----------------|----------------|----------------|

=============================================================================


E :------0---------|------0---------|------0---------|--3---1-0-------|
B :------------1---|------------1---|3-----------1---|1---------3-1---|
G :----------------|----------------|----------------|----------------|
D :----------------|----------------|----------------|----------------|
A :----------------|----------------|----------------|----------------|
E :3---------------|1---------------|----------------|----------------|


E :----------------|----------------|----------------|----------------|
B :----------------|----------------|----------------|----------------|
G :----------------|----------------|----------------|5-5-5-5-5-5-5-5-|
D :----------------|----------------|----------------|5-5-5-5-5-5-5-5-|
A :----------------|----------------|----------------|3-3-3-3-3-3-3-3-|
E :----------------|----------------|----------------|----------------|

=============================================================================


E :--3---1-0-------|--3---1-0-------|--3---1-0-------|--3---1-0-------|
B :1---------3-1---|1---------3-1---|1---------3-1---|1---------3-1---|
G :----------------|----------------|----------------|----------------|
D :----------------|----------------|----------------|----------------|
A :----------------|----------------|----------------|----------------|
E :----------------|----------------|----------------|----------------|


E :----------------|----------------|----------------|----------------|
B :----------------|----------------|----------------|----------------|
G :----------------|----------------|----------------|5-5-5-5-5-5-5-5-|
D :5-5-5-5-5-5-5-5-|3-3-3-3-3-3-3-3-|3-3-3-3-3-3-3-3-|5-5-5-5-5-5-5-5-|
A :5-5-5-5-5-5-5-5-|3-3-3-3-3-3-3-3-|3-3-3-3-3-3-3-3-|3-3-3-3-3-3-3-3-|
E :3-3-3-3-3-3-3-3-|1-1-1-1-1-1-1-1-|1-1-1-1-1-1-1-1-|----------------|

=============================================================================


E :--3---1-0-------|--3---1-0-------|--3---1-0-------|--3---1-0-------|
B :1---------3-1---|1---------3-1---|1---------3-1---|1---------3-1---|
G :----------------|----------------|----------------|----------------|
D :----------------|----------------|----------------|----------------|
A :----------------|----------------|----------------|----------------|
E :----------------|----------------|----------------|----------------|


E :----------------|----------------|----------------|----------------|
B :----------------|----------------|----------------|----------------|
G :----------------|----------------|----------------|5-5-5-5-5-5-5-5-|
D :5-5-5-5-5-5-5-5-|3-3-3-3-3-3-3-3-|3-3-3-3-3-3-3-3-|5-5-5-5-5-5-5-5-|
A :5-5-5-5-5-5-5-5-|3-3-3-3-3-3-3-3-|3-3-3-3-3-3-3-3-|3-3-3-3-3-3-3-3-|
E :3-3-3-3-3-3-3-3-|1-1-1-1-1-1-1-1-|1-1-1-1-1-1-1-1-|----------------|

=============================================================================


E :--3---1-0-------|--3---1-0-------|--3---1-0-------|--3---1-0-------|
B :1---------3-1---|1---------3-1---|1---------3-1---|1---------3-1---|
G :----------------|----------------|----------------|----------------|
D :----------------|----------------|----------------|----------------|
A :----------------|----------------|----------------|----------------|
E :----------------|----------------|----------------|----------------|


E :----------------|----------------|----------------|----------------|
B :----------------|----------------|----------------|----------------|
G :----------------|----------------|----------------|5-5-5-5-5-5-5-5-|
D :5-5-5-5-5-5-5-5-|3-3-3-3-3-3-3-3-|3-3-3-3-3-3-3-3-|5-5-5-5-5-5-5-5-|
A :5-5-5-5-5-5-5-5-|3-3-3-3-3-3-3-3-|3-3-3-3-3-3-3-3-|3-3-3-3-3-3-3-3-|
E :3-3-3-3-3-3-3-3-|1-1-1-1-1-1-1-1-|1-1-1-1-1-1-1-1-|----------------|

=============================================================================


E :--3---1-0-------|----------------|----------------|----------------|
B :1---------3-1---|----------------|----------------|----------------|
G :----------------|----------------|----------------|----------------|
D :----------------|----------------|----------------|----------------|
A :----------------|----------------|----------------|----------------|
E :----------------|----------------|----------------|----------------|


E :----------------|----------------|----------------|----------------|
B :----------------|----------------|----------------|----------------|
G :----------------|----------------|----------------|5-5-5-5-5-5-5-5-|
D :5-5-5-5-5-5-5-5-|3-3-3-3-3-3-3-3-|3-3-3-3-3-3-3-3-|5-5-5-5-5-5-5-5-|
A :5-5-5-5-5-5-5-5-|3-3-3-3-3-3-3-3-|3-3-3-3-3-3-3-3-|3-3-3-3-3-3-3-3-|
E :3-3-3-3-3-3-3-3-|1-1-1-1-1-1-1-1-|1-1-1-1-1-1-1-1-|----------------|

=============================================================================


E :----------------|----------------|----------------|----------------|
B :----------------|----------------|----------------|----------------|
G :----------------|----------------|----------------|----------------|
D :----------------|----------------|----------------|----------------|
A :----------------|----------------|----------------|----------------|
E :----------------|----------------|----------------|----------------|


E :----------------|----------------|----------------|----------------|
B :----------------|----------------|----------------|----------------|
G :----------------|----------------|----------------|5-5-5-5-5-5-5-5-|
D :5-5-5-5-5-5-5-5-|3-3-3-3-3-3-3-3-|3-3-3-3-3-3-3-3-|5-5-5-5-5-5-5-5-|
A :5-5-5-5-5-5-5-5-|3-3-3-3-3-3-3-3-|3-3-3-3-3-3-3-3-|3-3-3-3-3-3-3-3-|
E :3-3-3-3-3-3-3-3-|1-1-1-1-1-1-1-1-|1-1-1-1-1-1-1-1-|----------------|

=============================================================================


E :----------------|----------------|----------------|----------------|
B :----------------|----------------|----------------|----------------|
G :----------------|----------------|----------------|----------------|
D :----------------|----------------|----------------|----------------|
A :----------------|----------------|----------------|----------------|
E :----------------|----------------|----------------|----------------|


E :----------------|----------------|----------------|----------------|
B :----------------|----------------|----------------|----------------|
G :----------------|----------------|----------------|5-5-5-5-5-5-5-5-|
D :5-5-5-5-5-5-5-5-|3-3-3-3-3-3-3-3-|3-3-3-3-3-3-3-3-|5-5-5-5-5-5-5-5-|
A :5-5-5-5-5-5-5-5-|3-3-3-3-3-3-3-3-|3-3-3-3-3-3-3-3-|3-3-3-3-3-3-3-3-|
E :3-3-3-3-3-3-3-3-|1-1-1-1-1-1-1-1-|1-1-1-1-1-1-1-1-|----------------|

=============================================================================


E :----------------|----------------|----------------|----------------|
B :----------------|----------------|----------------|----------------|
G :----------------|----------------|----------------|----------------|
D :----------------|----------------|----------------|----------------|
A :----------------|----------------|----------------|----------------|
E :----------------|----------------|----------------|----------------|


E :----------------|----------------|----------------|----------------|
B :----------------|----------------|----------------|----------------|
G :----------------|----------------|----------------|5-5-5-5-5-5-5-5-|
D :5-5-5-5-5-5-5-5-|3-3-3-3-3-3-3-3-|3-3-3-3-3-3-3-3-|5-5-5-5-5-5-5-5-|
A :5-5-5-5-5-5-5-5-|3-3-3-3-3-3-3-3-|3-3-3-3-3-3-3-3-|3-3-3-3-3-3-3-3-|
E :3-3-3-3-3-3-3-3-|1-1-1-1-1-1-1-1-|1-1-1-1-1-1-1-1-|----------------|

=============================================================================


E :----------------|----------------|----------------|--3---1-0-------|
B :----------------|----------------|----------------|1---------3-1---|
G :----------------|----------------|----------------|----------------|
D :----------------|----------------|----------------|----------------|
A :----------------|----------------|----------------|----------------|
E :----------------|----------------|----------------|----------------|


E :----------------|----------------|----------------|----------------|
B :----------------|----------------|----------------|----------------|
G :----------------|----------------|----------------|5-5-5-5-5-5-5-5-|
D :5-5-5-5-5-5-5-5-|3-3-3-3-3-3-3-3-|3-3-3-3-3-3-3-3-|5-5-5-5-5-5-5-5-|
A :5-5-5-5-5-5-5-5-|3-3-3-3-3-3-3-3-|3-3-3-3-3-3-3-3-|3-3-3-3-3-3-3-3-|
E :3-3-3-3-3-3-3-3-|1-1-1-1-1-1-1-1-|1-1-1-1-1-1-1-1-|----------------|

=============================================================================


E :--3---1-0-------|--3---1-0-------|--3---1-0-------|--3---1-0-------|
B :1---------3-1---|1---------3-1---|1---------3-1---|1---------3-1---|
G :----------------|----------------|----------------|----------------|
D :----------------|----------------|----------------|----------------|
A :----------------|----------------|----------------|----------------|
E :----------------|----------------|----------------|----------------|


E :----------------|----------------|----------------|----------------|
B :----------------|----------------|----------------|----------------|
G :----------------|----------------|----------------|5-5-5-5-5-5-5-5-|
D :5-5-5-5-5-5-5-5-|3-3-3-3-3-3-3-3-|3-3-3-3-3-3-3-3-|5-5-5-5-5-5-5-5-|
A :5-5-5-5-5-5-5-5-|3-3-3-3-3-3-3-3-|3-3-3-3-3-3-3-3-|3-3-3-3-3-3-3-3-|
E :3-3-3-3-3-3-3-3-|1-1-1-1-1-1-1-1-|1-1-1-1-1-1-1-1-|----------------|

=============================================================================


E :--3---1-0-------|--3---1-0-------|--3---1-0-------|--3---1-0-------|
B :1---------3-1---|1---------3-1---|1---------3-1---|1---------3-1---|
G :----------------|----------------|----------------|----------------|
D :----------------|----------------|----------------|----------------|
A :----------------|----------------|----------------|----------------|
E :----------------|----------------|----------------|----------------|


E :----------------|----------------|----------------|----------------|
B :----------------|----------------|----------------|----------------|
G :----------------|----------------|----------------|5-5-5-5-5-5-5-5-|
D :5-5-5-5-5-5-5-5-|3-3-3-3-3-3-3-3-|3-3-3-3-3-3-3-3-|5-5-5-5-5-5-5-5-|
A :5-5-5-5-5-5-5-5-|3-3-3-3-3-3-3-3-|3-3-3-3-3-3-3-3-|3-3-3-3-3-3-3-3-|
E :3-3-3-3-3-3-3-3-|1-1-1-1-1-1-1-1-|1-1-1-1-1-1-1-1-|----------------|

=============================================================================


E :--3---1-0-------|--3---1-0-------|--3---1-0-------|--3---1-0-------|
B :1---------3-1---|1---------3-1---|1---------3-1---|1---------3-1---|
G :----------------|----------------|----------------|----------------|
D :----------------|----------------|----------------|----------------|
A :----------------|----------------|----------------|----------------|
E :----------------|----------------|----------------|----------------|


E :----------------|----------------|----------------|----------------|
B :----------------|----------------|----------------|----------------|
G :----------------|----------------|----------------|5-5-5-5-5-5-5-5-|
D :5-5-5-5-5-5-5-5-|3-3-3-3-3-3-3-3-|3-3-3-3-3-3-3-3-|5-5-5-5-5-5-5-5-|
A :5-5-5-5-5-5-5-5-|3-3-3-3-3-3-3-3-|3-3-3-3-3-3-3-3-|3-3-3-3-3-3-3-3-|
E :3-3-3-3-3-3-3-3-|1-1-1-1-1-1-1-1-|1-1-1-1-1-1-1-1-|----------------|

=============================================================================


E :--3---1-0-------|--3---1-0-------|--3---1-0-------|--3---1-0-------|
B :1---------3-1---|1---------3-1---|1---------3-1---|1---------3-1---|
G :----------------|----------------|----------------|----------------|
D :----------------|----------------|----------------|----------------|
A :----------------|----------------|----------------|----------------|
E :----------------|----------------|----------------|----------------|


E :----------------|----------------|----------------|----------------|
B :----------------|----------------|----------------|----------------|
G :----------------|----------------|----------------|5-5-5-5-5-5-5-5-|
D :5-5-5-5-5-5-5-5-|3-3-3-3-3-3-3-3-|3-3-3-3-3-3-3-3-|5-5-5-5-5-5-5-5-|
A :5-5-5-5-5-5-5-5-|3-3-3-3-3-3-3-3-|3-3-3-3-3-3-3-3-|3-3-3-3-3-3-3-3-|
E :3-3-3-3-3-3-3-3-|1-1-1-1-1-1-1-1-|1-1-1-1-1-1-1-1-|----------------|

=============================================================================


E :--3---1-0-------|--3---1-0-------|--3---1-0-------|--3---1-0-------|
B :1---------3-1---|1---------3-1---|1---------3-1---|1---------3-1---|
G :----------------|----------------|----------------|----------------|
D :----------------|----------------|----------------|----------------|
A :----------------|----------------|----------------|----------------|
E :----------------|----------------|----------------|----------------|


E :----------------|----------------|----------------|----------------|
B :----------------|----------------|----------------|----------------|
G :----------------|----------------|----------------|5-5-5-5-5-5-5-5-|
D :5-5-5-5-5-5-5-5-|3-3-3-3-3-3-3-3-|3-3-3-3-3-3-3-3-|5-5-5-5-5-5-5-5-|
A :5-5-5-5-5-5-5-5-|3-3-3-3-3-3-3-3-|3-3-3-3-3-3-3-3-|3-3-3-3-3-3-3-3-|
E :3-3-3-3-3-3-3-3-|1-1-1-1-1-1-1-1-|1-1-1-1-1-1-1-1-|----------------|

=============================================================================


E :--3---1-0-------|--3---1-0-------|--3---1-0-------|--3---1-0-------|
B :1---------3-1---|1---------3-1---|1---------3-1---|1---------3-1---|
G :----------------|----------------|----------------|----------------|
D :----------------|----------------|----------------|----------------|
A :----------------|----------------|----------------|----------------|
E :----------------|----------------|----------------|----------------|


E :----------------|----------------|----------------|----------------|
B :----------------|----------------|----------------|----------------|
G :----------------|----------------|----------------|5-5-5-5-5-5-5-5-|
D :5-5-5-5-5-5-5-5-|3-3-3-3-3-3-3-3-|3-3-3-3-3-3-3-3-|5-5-5-5-5-5-5-5-|
A :5-5-5-5-5-5-5-5-|3-3-3-3-3-3-3-3-|3-3-3-3-3-3-3-3-|3-3-3-3-3-3-3-3-|
E :3-3-3-3-3-3-3-3-|1-1-1-1-1-1-1-1-|1-1-1-1-1-1-1-1-|----------------|

=============================================================================


E :--3---1-0-------|--3---1-0-------|--3---1-0-------|--3---1-0-------|
B :1---------3-1---|1---------3-1---|1---------3-1---|1---------3-1---|
G :----------------|----------------|----------------|----------------|
D :----------------|----------------|----------------|----------------|
A :----------------|----------------|----------------|----------------|
E :----------------|----------------|----------------|----------------|


E :----------------|----------------|----------------|----------------|
B :----------------|----------------|----------------|----------------|
G :----------------|----------------|----------------|5-5-5-5-5-5-5-5-|
D :5-5-5-5-5-5-5-5-|3-3-3-3-3-3-3-3-|3-3-3-3-3-3-3-3-|5-5-5-5-5-5-5-5-|
A :5-5-5-5-5-5-5-5-|3-3-3-3-3-3-3-3-|3-3-3-3-3-3-3-3-|3-3-3-3-3-3-3-3-|
E :3-3-3-3-3-3-3-3-|1-1-1-1-1-1-1-1-|1-1-1-1-1-1-1-1-|----------------|

=============================================================================


E :--3---1-0-------|--3---1-0-------|--3---1-0-------|--3---1-0-------|
B :1---------3-1---|1---------3-1---|1---------3-1---|1---------3-1---|
G :----------------|----------------|----------------|----------------|
D :----------------|----------------|----------------|----------------|
A :----------------|----------------|----------------|----------------|
E :----------------|----------------|----------------|----------------|


E :----------------|----------------|----------------|----------------|
B :----------------|----------------|----------------|----------------|
G :----------------|----------------|----------------|5-5-5-5-5-5-5-5-|
D :5-5-5-5-5-5-5-5-|3-3-3-3-3-3-3-3-|3-3-3-3-3-3-3-3-|5-5-5-5-5-5-5-5-|
A :5-5-5-5-5-5-5-5-|3-3-3-3-3-3-3-3-|3-3-3-3-3-3-3-3-|3-3-3-3-3-3-3-3-|
E :3-3-3-3-3-3-3-3-|1-1-1-1-1-1-1-1-|1-1-1-1-1-1-1-1-|----------------|

=============================================================================


E :--3---1-0-------|--3---1-0-------|--3---1-0-------|--3---1-0-------|
B :1---------3-1---|1---------3-1---|1---------3-1---|1---------3-1---|
G :----------------|----------------|----------------|----------------|
D :----------------|----------------|----------------|----------------|
A :----------------|----------------|----------------|----------------|
E :----------------|----------------|----------------|----------------|


E :----------------|----------------|----------------|----------------|
B :----------------|----------------|----------------|----------------|
G :----------------|----------------|----------------|5-5-5-5-5-5-5---|
D :5-5-5-5-5-5-5-5-|3-3-3-3-3-3-3-3-|3-3-3-3-3-3-3-3-|5-5-5-5-5-5-5-5-|
A :5-5-5-5-5-5-5-5-|3-3-3-3-3-3-3-3-|3-3-3-3-3-3-3-3-|3-3-3-3-3-3-3-5-|
E :3-3-3-3-3-3-3-3-|1-1-1-1-1-1-1-1-|1-1-1-1-1-1-1-1-|--------------3-|

=============================================================================


E :--3---1-0-------|--3|
B :1---------3-1---|1--|
G :----------------|---|
D :----------------|---|
A :----------------|---|
E :----------------|---|


E :----------------|---|
B :----------------|---|
G :----------------|---|
D :5-5-5-5-5-5-5-3-|3-3|
A :5-5-5-5-5-5-5-3-|3-3|
E :3-3-3-3-3-3-3-1-|1-1|
Tap to rate this tab
 
# A B C D E F G H I J K L M N O P Q R S T U V W X Y Z