Song name
# A B C D E F G H I J K L M N O P Q R S T U V W X Y Z

Pupil - Dulo Ng Dila tab

Artist : Pupil
Title  : Dulo ng dila
Album  : Beautiful Machines


Intro : Kayo na bahala pag sumobra kasi wala ako dalang gitara hehehe bsata

pakingan nyo nlang

e|-------------------------------------------------------------------------|
B|-------------------------------------------------------------------------|
G|----------5-5-5-5-5--------------9-9-9-9-9-9-9-12-12-12-12-12-12-12------|
D|--------------------5-5-5-5-5----7-7-7-7-7-7-7-10-10-10-10-12-12-12------|
A|-------------------------------------------------------------------------|
E|-------------------------------------------------------------------------|

2x yan ha

e|-------------------------------------------------------------------------|
B|-------------------------------------------------------------------------|
G|-12-12-12-12-12-12-12-12--14-14-14-14-14-14-14-14------------------------|
D|10-10-10-10-10-10-10-10-------------------------14-14-14-14-14-14-14-14--|
A|-------------------------------------------------------------------------|
E|-------------------------------------------------------------------------|

E2 din 2x


Verse : dito c yani ang kumacareer mabilis na pagdating sa 4 ng 6th string

pakingan nyo mabuti kasi hindi ito gaano marinig ang iba sinasabi na base

ito pero hindi naman siya tunog base


e|-------------------------------------------------------------------------|
B|-------------------------------------------------------------------------|
G|-------------------------------------------------------------------------|
D|-------------------------------------------------------------------------|
A|-----5--4--3--4--5-5-5-5--------------------5----5--4--3--4--------------|
E----4------------------------2-2-2---5-5-5------4-------------------------|

ito hangang matapos ung 1st verse ung para lang merong kulay...

ung ginagawa ni ely hindi ko pa masyado mariinig eh...

Chorus ata tawag dito basta ito ung sa anong kailangan mong marinig...


e|-------------------------------------------------------------------------|
B|----5-5-5-5-5-5-5-5---4-4-4-4----7-7-7---4-4-4-4-------------------------|
G|-------------------------------------------------------------------------|
D|-------------------------------------------------------------------------|
A|-------------------------------------------------------------------------|
E|-------------------------------------------------------------------------|

4x yan ha


ung intro 2 ata tawag dito basta ito yung pagkatapos ng chorus na walang

kanta....

e|-------------------------------------------------------------------------|
B|-------------------------------------------------------------------------|
G|------------------------9-9-9-9-9-9-9-12-12-12-12-12-12-12---------------|
D|-----------5-5-5-5-5----7-7-7-7-7-7-7-10-10-10-10-12-12-12---------------|
A|-------------------------------------------------------------------------|
E|-------------------------------------------------------------------------|

1x lang yan

e|-------------------------------------------------------------------------|
B|-------------------------------------------------------------------------|
G|----------5-5-5-5-5--------------9-9-9-9-9-9-9-12-12-12-12-12-12-12------|
D|--------------------5-5-5-5-5----7-7-7-7-7-7-7-10-10-10-10-12-12-12------|
A|-------------------------------------------------------------------------|
E|-------------------------------------------------------------------------|
 ito din 1x lang

dito naman sa part na to ung bridge instrumental basta yung gagawin lang ng

guitar 1 dito ung rhythm ung chords DM7-Am-DM7-Am...

tapos ung Guitar 2 lead naman sasabay sa pang 2 na DM7 tapos ung guitar 1

sasabayan tong lead na ito!!

e|-------------------------------------------------------------------------|
B|-----------15--12--------------------------------------------------------|
G|--------------------15slide-2--------------------------------------------|
D|-------------------------------------------------------------------------|
A|-------------------------------------------------------------------------|
E|-------------------------------------------------------------------------|


dito sa last part na to ung kantang uhh hu hu hu puro un lang


e|---------------------------------------------------------------------------|
B|---------------------------------------------------------------------------|
G|-12-12-12-12-12-12-12-12--14-14-14-14-14-14-14-14--------------------------|
D|10-10-10-10-10-10-10-10-------------------------14-14-14-14-14-14-14-14----|
A|---------------------------------------------------------------------------|
E|---------------------------------------------------------------------------|

2x yan


e|---------------------------------------------------------------------------|
B|---------------------------------------------------------------------------|
G|-12-12-12-12-12-12-12-12--14-14-14-14-14-14-14-14-16-16-16-16-16-16-16-----|
D|10-10-10-10-10-10-10-10----------------------------------------------------|
A|---------------------------------------------------------------------------|
E|---------------------------------------------------------------------------|

e|-------------------------------------------------------------------------|
B|----------------------------------------------------19-------------------|
G|--17--17--17--17--17--17--17--17----19-19-19-19-19-----17-16-------------|
D|15--15--15--15--15--15--15--15-------------------------------17----------|
A|-------------------------------------------------------------------------|
E|-------------------------------------------------------------------------|

End na PAki rate naman po thx!!!

Kung may tanong i txt nyo lang ako sa #ko 09205911661 asahan nyo reply ko

Kung meron lang di maintindihan hindi pwede ang txtm8!
Tap to rate this tab
# A B C D E F G H I J K L M N O P Q R S T U V W X Y Z