Guitaretab - guitar tabs
Song name
# A B C D E F G H I J K L M N O P Q R S T U V W X Y Z

Pure Prarie League - Amie tab

----------------------------------------------------------------------------
                        AMIE - Pure Prarie League
----------------------------------------------------------------------------
Tabbed by phxdan
Email: danphoenix65@yahoo.com

Intro:
E|-----------------------------------------------------------------------5---|
B|-----------------5-7-5---------------------------------------------5-7-5h7-|
G|-----2-2-4-2-4/6-------6\4-2------2-2-4-2-4/6-4-4------2-2-4-2-4/6---------|
D|-2h4--------------------------2h4------------------2h4---------------------|
A|---------------------------------------------------------------------------|
E|---------------------------------------------------------------------------|

E|-5---5--------------------------------------------------------------------|
B|-5h7-5h7-5-7-5-5---5-7-5--------------------------------------------------|
G|--------------6----------6\4-2--------------------------------------------|
D|--------------------------------------------------------------------------|
A|--------------------------------------------------------------------------|
E|--------------------------------------------------------------------------|
[ Tab from: http://www.guitaretab.com/p/pure-prarie-league/146616.html ]
Solo:
E|--------------------------------------------------------------------------|
B|---------------5-5-----5--------------------------------------------------|
G|-----2-2-2-4/6-----4/6---6\4-2-2-2-4-5-4-2h4-2--------------------5-4-2---|
D|-2h4--------------------------4-4-------------------2h4-2h4-2h4-2---------|
A|------------------------------------------------3h4-----------------------|
E|--------------------------------------------------------------------------|

E|--------------------------------------------------------------------------|
B|--5-5-5-5/-8-8-8-8--------------------------------------------------------|
G|-6-6-6-6-/9-9-9-9-------2h4-2h4/5-4-2h4-2----------0-0-2-0-3-2-0h2-0------|
D|--------------------3h4------------------------2-2--------------------3h4-|
A|-------------------------------------------3-3----------------------------|
E|--------------------------------------------------------------------------|

E|---------------------------------------------------------------------------|
B|---------------------3-------------------------------------------------5-5-|
G|-2h4-2-4/5-4/5-5\4-2------------0-0-2-0-3-2-0------2-2-2-4-4/6-4-4-4h6--6--|
D|--------------------4-------2-2----------------3h4--4-4--------------------|
A|------------------------3-3------------------------------------------------|
E|---------------------------------------------------------------------------|

E|------7b-5---5-7b-5--------------------------------------------------------|
B|--5-7------7---------------------------------------------------------------|
G|-6-------------------------------------------------------------------------|
D|---------------------------------------------------------------------------|
A|---------------------------------------------------------------------------|
E|---------------------------------------------------------------------------|

Let me know if you think it is right.