Guitaretab - guitar tabs
Song name
# A B C D E F G H I J K L M N O P Q R S T U V W X Y Z

Pushing Daisies - Disagree tab

Pushing Daisies - Disagree
==========================

Tabbed by Mike Cannon (smilock@hotmail.com)

This is my attempt at one of my favourite tracks. The lyrics may not be right but the
tab should be pretty accurate having taken the track apart for tabbing!
Enjoy!

Tab Explanation
===============

s	Slide
h	Hammer-on
p	Pull-off
T	Tap
B	Bend the note to the fret after the B
R	Release back to the originally bent note
A.H.	Artificial Harmonic
m	Palm Muted
//	Trem Pick (Pick as fast as possible)

Guitar 1 - Acoustic Gtr ***CAPO 4TH FRET***
Guitar 2 - Semi-Distorted Electric
Guitar 3 - Semi-Distorted Electric
Guitar 4 - Distorted Electric (w/Wah)
Guitar 5 - Semi-Distorted Electric
==============================

Intro
=====
e|-3-|-3-|-0h2-|-3-|-3-3-----|
B|-3-|-3-|-3-3-|-3-|-3---3---|
G|-0-|-0-|-2-2-|-0-|-0-----0-| Gtr. 1
D|-2-|-0-|-0-0-|-2-|-2-------|
A|-2-|-2-|-----|-3-|-3-------|
E|-0-|---|-----|---|---------|

e|---------------|
B|---------------|
G|-6~~~~~b7r6s4~-| Gtr. 5 (Plays this throughout whole song
D|---------------|	   except first solo and interlude)
A|---------------|
E|---------------|

Verse
=====
e|-3-|-0h2-|-3-|-3-|
B|-3-|-3-3-|-3-|-3-|
G|-0-|-2-2-|-0-|-0-| Gtr. 1
D|-2-|-0-0-|-2-|-2-|
A|-2-|-----|-3-|-3-|
E|-0-|-----|---|---|
I knew something wasn't right the other night
When she came to bed angry
We used to talk before but lately
We've been fighting out the stupidest things

Bridge
======
e|-3-|-0h2-|-3-|-3-|
B|-3-|-3-3-|-3-|-3-|
G|-0-|-2-2-|-0-|-0-| Gtr. 1
D|-2-|-0-0-|-2-|-2-|
A|-2-|-----|-3-|-3-|
E|-0-|-----|---|---|
 |
e|-------4-------------2-------------0-------------0-------|
B|-4-4---4-4-----2-2---2-2-----0-0---0-0-----0-0---0-0-----|
G|-4-4-4-4-4-4---3-3-3-3-3-3---1-1-1-1-1-1---1-1-1-1-1-1---| Gtr. 2
D|-6---6-----4h6-4---4-----2h4-2---2-----0h2-2---2-----0h2-|
A|-6-------------4-------------2-------------2-------------|
E|---------------------------------------------------------|

e|---------------------------------------------------------|
B|---------------------------------------------------------|
G|---------------------------------------------------------| Gtr. 3
D|-6~------------4~------------2~------------2~------------|
A|-6~------------4~------------2~------------2~------------|
E|-4~------------2~------------0~------------0~------------|
And I don't know if we can come
To some sort of conclusion here
There's gotta be an easy way
Just think about without the pain
And tears that you cry

Chorus
======
e|-3-|-0h2-|-3-3-3-|-0-0-0-|
B|-3-|-3-3-|-3-3-3-|-2-2-2-|
G|-0-|-2-2-|-0-0-0-|-2-2-2-| Gtr. 1
D|-0-|-0-0-|-2-2-2-|-2-2-2-|
A|-2-|-----|-3-3-3-|-0-0-0-|
E|-3-|-----|-------|-------|
 |
e|-2-----2------2-----2------0-0-0~-0-4-4-4~-4-|
B|-4-4---4-4----2-2---2-2----1-1-1~-1-6-6-6~-6-|
G|-4-4-4-4-4-4~-3-3-3-3-3-3~-2-2-2~-2-6-6-6~-6-| Gtr. 2
D|-4---4-----4~-4---4-----4~-2-2-2~-2-6-6-6~-6-|
A|-2------------4------------------------------|
E|--------------2------------------------------|
 |
e|---------------------------------------------|
B|---------------------------------------------|
G|-4~---------------------------------6-6-6~---| Gtr. 3
D|-4~-----------4~-----------2-2-2~---6-6-6~---|
A|-2~-----------4~-----------2-2-2~---4-4-4~---|
E|--------------2~-----------0-0-0~------------|
I've been wanting to give you away
I still love you 
I dont need you

Verse (as before)
=====
e|-----------------|
B|-----------------|
G|-----------------| Gtr. 5
D|-----------------|
A|-6~-4-6-4-2s4s2~-|
E|-----------------|
Early morning 6 am 
She kicks the blankets out the bed
Another cup of coffee yes
She reads the morning papers for today
She doesn't feel like laughing

e|-x-x-x-x-|
B|-x-x-x-x-|
G|-x-x-x-x-| Gtr. 3
D|-x-x-x-x-|
A|-x-x-x-x-|
E|-x-x-x-x-|

Bridge (as before)
======
Never meant to cause you pain
Something that I can't explain
I only wish you'd stop and see
That all I have is you and me
Broken ??? that I try

Chorus (as before)
======

Guitar Solo 1
=============
e|-3-|-0h2-|-3-|-3-|
B|-3-|-3-3-|-3-|-3-|
G|-0-|-2-2-|-0-|-0-| Gtr. 1
D|-2-|-0-0-|-2-|-2-|
A|-2-|-----|-3-|-3-|
E|-0-|-----|---|---|
[ Tab from: http://www.guitaretab.com/p/pushing-daisies/127743.html ]
e|------------------------------------------------------------------|
B|------------------------------------------------------------------|
G|------------------------------------------------------------------| Gtr. 5
D|-6~-4s6~-6-6-6s8-8-8-8b9r8~-8-8-8s9~-9~-9-9-8s9-9-9-9s8-8-8-8s6-6-|
A|------------------------------------------------------------------|
E|------------------------------------------------------------------|

e|----------------------------------------------------------------|
B|----------------------------------------------------------------|
G|---------------------------------------6-8-6-6------------------| Gtr. 5
D|-6-6s4-4-4-6s8-6-8b9p6~-6-6-6s4-4-4-s8---------6-4-4h6p4---4----|
A|---------------------------------------------------------7---7~-|
E|----------------------------------------------------------------|

Guitar Solo 2
=============
e|-3-|-0h2-|-3-|-3-|
B|-3-|-3-3-|-3-|-3-|
G|-0-|-2-2-|-0-|-0-| Gtr. 1
D|-2-|-0-0-|-2-|-2-|
A|-2-|-----|-3-|-3-|
E|-0-|-----|---|---|
 |
e|-4-------4---------------2-------------0-0-------------0-0-------|
B|---4---4---4---4-------2---2-------------------------------------|
G|---------------------3---------------------1---------------1-----| Gtr. 2
D|-----6-------6-----4---------4-------2-------2-------2-------2---|
A|-------------------------------4---2-----------2---2-----------2-|
E|-----------------2---------------0---------------0---------------|
 |
e|-----------------------------------------------------------------|
B|-----------------------------------------------------------------|
G|-----------------------------------------------------------------| Gtr. 3
D|-6~--------------4~--------------2~--------------2~--------------|
A|-6~--------------4~--------------2~--------------2~--------------|
E|-4~--------------2~--------------0~--------------0~--------------|


e|-----------------------------------------------------------14-------|
B|-------------12p11----12b14-12-11----------14b16r14~-14b16----14b16-|
G|-11h13-13-13-------13-------------13b15r13--------------------------|Gtr.4
D|--------------------------------------------------------------------|
A|--------------------------------------------------------------------|
E|--------------------------------------------------------------------|

e|--------------------------------------------------14-------------14-|
B|-12b14r12-12~-12----14b16-14b16-14b16-14b16-14b16----14b16-14b16----|
G|-----------------13-------------------------------------------------| Gtr. 4
D|--------------------------------------------------------------------|
A|--------------------------------------------------------------------|
E|--------------------------------------------------------------------|

e|---------------------------------|
B|-14b16r14p12-14-12~s17~-17b19r17-|
G|---------------------------------| Gtr. 4
D|---------------------------------|
A|---------------------------------|
E|---------------------------------|

Gtr. 1 and Gtr. 3 switch to this:
e|------0~-----------------------|
B|-----0~----3~----3~---------3~-|
G|----0~----2~----0~------0------| Gtr. 1
D|---2~----0~----2~---0h2---2----|
A|--2~----------3~---------------|
E|-0~----------------------------|
 |
e|-------------------------------|
B|-------------------------------|
G|-------------------------------| Gtr. 3
D|-6~----------------------------|
A|-6~----------------------------|
E|-4~----------------------------|
 |
e|-------------------------------------|
B|-16~-16-16s14-14-14~-14-14b16r14-12~-|
G|-------------------------------------| Gtr. 4
D|-------------------------------------|
A|-------------------------------------|
E|-------------------------------------|

Interlude
=========
e|---------3-------------0h2---------------------------|
B|-----3-----3--------3------3---3-------3~---------3~-|
G|---0---0-----0~---2---2------2-------0--------0------| Gtr. 1
D|----------------0------------------2------0h2---2----|
A|---------------------------------3-------------------|
E|-0---------------------------------------------------|

e|---------3--------------0h2---------------------|
B|-----3-----3---3-----3------3---3-------3~------|
G|---0---0-----0-----2---2------2-------0---------| Gtr. 1
D|-----------------0------------------2------0h2~-|
A|----------------------------------3--------3~---|
E|-0----------------------------------------------|
And I knew something wasn't right the other night
When she came to bed angry
We used to talk before but lately 
We've been fightout out the stupidest things

Bridge (as before)
======
And I don't know if we can come
To some sort of conclusion here
There's gotta be an easy way
Just think about without the pain
And tears that you cry

Chorus (as before finishing as shown)
======
e|-0~----------|
B|-0~----------|
G|-0~----------| Gtr. 1
D|-2~----------|
A|-2~----------|
E|-0~----------|
 |
e|-4~-------4--|
B|-4~----------|
G|-4~----------| Gtr. 2
D|-6~----------|
A|-6~----------|
E|-4~----------|