Song name
# A B C D E F G H I J K L M N O P Q R S T U V W X Y Z

Qayamat Se Qayamat Tak - Papa Kehte Hain tab

Kamran Hayat Khan N-W-F-P
Chemical Engineer NFC*IEFR
kamran_pk77@hotmail.com

e-0-0------------------------------------------|
B------3-1-3---------------6-5-3---------------|
G----------------0-2-5-5-----------------------|
D----------------------------------------------|
A----------------------------------------------|
E----------------------------------------------|

  PAPA KEHTE HAIN BADA NAAM KAREGA

e-0-0-------------------------------------------|
B------3-1-3--------------6-5-3-----------------|
G---------------0-2-5-5-------------------------|
D-----------------------------------------------|
A-----------------------------------------------|
E-----------------------------------------------|

  BETA HAMARA  AISA KAAM KAREGA

e-----------------------------------------------|
B-----------------------------------------------|
G--0-2-4-5-5----5-5-4-2-2-----------------------|
D-----------------------------------------------|
A-----------------------------------------------|
E-----------------------------------------------|

  MAGAR YEH TO  KOI NAA JANE

e------------------------------------------------|
B------------------------------------------------|
G-2-2-0------------------------------------------|
D---------3-3----2-3-5-5-5-5---------------------|
A------------------------------------------------|
E------------------------------------------------|

  KE MERE MANZIL HAI KAHAAAAAN

e-0-0---------------------------------------------|
B------3-1-3--------------6-5-3-------------------|
G---------------0-2-5-5---------------------------|
D-------------------------------------------------|
A-------------------------------------------------|
E-------------------------------------------------|

  PAPA KEHTE HAI BADA NAAM KAREGA AAAAAAAAAAA

e------------------------------------------------|
B------------------------------------------------|
G-0-0-0-0-0h2-0---0-0-0-0-0h2--------------------|
D------------------------------------------------|
A------------------------------------------------|
E------------------------------------------------|

 MERA TO SAPNA  HAI EK CHERA

e-1-1-0-------------------------------------------|
B---------2-2-------------------------------------|
G----------------4-2----4-5-5-7-7-9-9-------------|
D-------------------------------------------------|
A-------------------------------------------------|
E-------------------------------------------------|

  DEKHE JO USKO JHOOME BAHARRRRRRRRR


e------------------------------------------------|
B------------------------------------------------|
G-9-9---7---5-7-0-2----5-10-9-7-7-7-7-7----------|
D------------------------------------------------|
A------------------------------------------------|
E------------------------------------------------|

  BANDA YEH KHOOBSURAT KAAM KAREGAAAAA

e------------------------------------------------|
B------------------------------------------------|
G-9-9---7---5-7-0-2----5-10-9-7-7-7-7-7----------|
D------------------------------------------------|
A------------------------------------------------|
E------------------------------------------------|

  DIL KI DUNIYA MEIN APNA NAAM KAREGAAAA

e----------------------------------------------------------|
B----------------------------------------------------------|
G--0-2-4-5-5----5-5-4-2-2----2-2-0-------------------------|
D-----------------------------------------3-3----2-3-5-----|
A----------------------------------------------------------|
E----------------------------------------------------------|

  MAGAR YEH TO  KOI NAA JANE  KE MERE MANZIL HAI KAHAN
Tap to rate this tab
# A B C D E F G H I J K L M N O P Q R S T U V W X Y Z