Song name
# A B C D E F G H I J K L M N O P Q R S T U V W X Y Z

Quarter Fifth - Im Sorry tab

    |-----------------|--------------------|
    |-----------------|-2-2-2-2------------|
    |-----------------|-2-2-2-2------------|
    |-2-1-1-1-1-1-1-1-|-2-2-2-2-2-1--------|
    |-2-2-2-2-2-2-2-1-|---------2-2--------|
    |-2-2-2-2-2-2-2-2-|---------2-2--------|

    |-----------------|--------------------|
    |-----------------|-2-2-2-2------------|
    |-----------------|-2-2-2-2------------|
    |-2-1-1-1-1-1-1-1-|-2-2-2-2--1---------|
    |-2-2-2-2-2-2-2-1-|----------2---------|
    |-2-2-2-2-2-2-2-2-|----------2---------|

play this all the way through till the end part:

   |---------------------------------------|
   |---------------------------------------|
   |---------------------------------------|
   |-2-0-1-2-0-1-2-0-1---------------------|
   |-2-0-2-2-0-2-2-0-2---x-4---------------|
   |-2-0-2-2-0-2-2-0-2---------------------|
     LYRICS
  I'm sorry...... for the trouble's i've caused you,
  I'm sorry...... for the troubles i've caused.

  I'm sorry...... for fucking your mother,
  I'm sorry...... for fucking your mum.

  I'm sorry...... for stealing your car,
  I'm sorry...... for hot-wiring... your car.

  I'm sorry...... for stealing your girlfriend,
  I'm sorry...... for stealing your gal.

  I'm sorry...... for ruining your life,
  I'm sorry...... for wrecking your life.

 END PART
 I'm sorry,  I'm sorry,  I'm sorry,  I'm sorry,
 I'm sorry,  I'm sorry,  I'm sorry,  I'm sorry,
 sorry, sorry, sorry, sorry, sorry, sorry, sorry,
 I-I-I-I-I-I'm SO-O-O-O-R-R-R-Y!!!!!!!!!!!!
              Sorry

 Cheers and rock on From robin, guitarist of Fifth quarter and backing vocals
Thanks to Kev and everyone
you can't have any corrections cos i wrote the damn song but any improvements then e-mail me:
groove_machine@another.com
or kev
123@split.com
by improvements i mean extra lyrics 'n' stuff like that :)
Tap to rate this tab
 
# A B C D E F G H I J K L M N O P Q R S T U V W X Y Z