Song name
# A B C D E F G H I J K L M N O P Q R S T U V W X Y Z

Queen - We Will Rock You chords

Highlighted       Show chord diagrams
---------------------------------------------------------------------------
                We Will Rock You (Fast) - Queen
---------------------------------------------------------------------------
Tabbed by: maguri
Tuning: Standard

Queen 
We Will Rock You (Fast) (1977)
(May)

From: "Live Killers" and other live albums and DVDs

This is not the a capella version from the album but the live version.
Here one can actually hear the chords that were left off the studio recording. 
Watch it here (the actual song starts at 1:08): 
https://www.youtube.com/watch?v=LGBUJL5uS_c

---------------------------------------------------------------------------

INTRO (basic riff)

  E   
  1 + 2 + 3 + 4 +  1 + 2 + 3 + 4 +  1 + 2 + 3 + 4 +  1 + 2 + 3 + 4 +
e|------p---p-----|----------------|------p---p-----|----------------|
B|----109-109---9-|----10--9-------|----109-109---9-|----10--9-------|
G|----9---------9-|----9---9-------|----9---------9-|----9---9-------|
D|----119-119---9-|----11--9-------|----119-119---9-|----11--9-------|
A|------p---p-----|----------------|------p---p-----|----------------|
E|----------------|----------------|----------------|----------------|
  E   
  1 + 2 + 3 + 4 +  1 + 2 + 3 + 4 +  1 + 2 + 3 + 4 +  1 + 2 + 3 + 4 +
e|------p---p-----|----------------|------p---p-----|----------------|
B|----109-109---9-|----10--9-------|----109-109---9-|----10--9-------|
G|----9---------9-|----9---9-------|----9---------9-|----9---9-------|
D|----119-119---9-|----11--9-------|----119-119---9-|----11--9-------|
A|------p---p-----|----------------|------p---p-----|----------------|
E|----------------|----------------|----------------|----------------|
  G       D        C       G
  1 + 2 + 3 + 4 +  1 + 2 + 3 + 4 +  
e|----------------|----------------|
B|----------------|----------------|
G|7---------------|----------------|
D|5-------7-------|5---------------|
A|--------5-------|3---------------|
E|----------------|--------3-3-2-0-|

---------------------------------------------------------------------------

INTRO
| E | % | % | % | 
| G D | C G | 
| E | % |
| G D | C G | 


VERSE
E
Buddy you're a boy make a big noise
               E                     C        G
Playing in the street gonna be a big man some day
        E
You got mud on your face
    E
You big disgrace
D                    E
Kickin' your can all over the place, singin' ...


CHORUS
G  D    C  G    E
We will we will rock you
G  D    C  G
We will we will ...


VERSE
E
Buddy you're a young man hard man
               E                         C          G
Shouting in the street gonna take on the world some day
        E
You got blood on your face
    E
You big disgrace
D                      E
Wavin' your banner all over the place


CHORUS
G  D    C  G    E
We will we will rock you, singin' ...
G  D    C  G    [C]
We will we will rock you


INTERLUDE
(bass solo)
| C | % | | C | % | 

| E | % | % | C G |
| E | % | % | C G |
| E | % | % | C G |
| E | % | % | C G |

SOLO
| E | % | % | C G |
| E | % | % | C G |
| E | % | % | C G |
| E | % | % | C G |

| E | % | % | % |


CHORUS
G  D    C  G    E
We will we will rock you
G  D    C  G
We will we will ...


VERSE
E
Buddy you're an old man poor man
                   E                        C          G
Pleading with your eyes gonna make you some peace some day
        E
You got mud on your face
E
Big disgrace
    D                        E
Somebody better put you back into your place


CHORUS
G  D    C  G    E
We will we will rock you, hey yeah
G  D    C  G    A                   E
We will we will rock you, rock you, rock you, rock you
G  D    C  G    A [break]     C [break]     E 
We will we will rock you                    rock you


Tap to rate this tab
# A B C D E F G H I J K L M N O P Q R S T U V W X Y Z