Song name
# A B C D E F G H I J K L M N O P Q R S T U V W X Y Z

Queso - Steve tab

                       Uraya boys

                        Anti-Emo


Steve

Tuning: Tune guitar 2 1/2 step down then drop d (A E A D F# B).

Intro: (you have to figure out the rhythm)

B -------------------------|
F#-------------------------|
D ----------------4--------|4x
A --7-7-7-7/5-5-3-4-3--1---|
E --7-7-7-7/5-5-3-2-3--1---|
A --7-7-7-7/5-5-3---3--1---|

B -----------------------|
F#-----------------------|
D ----4------------------|
A --3-4-3-1--1--1--1--1--|
E --3-2-3-1--1--1--1--1--|
A --3---3-1--1--1--1--1--|

Verse:
B ----------------------------------|
F#----------------------------------|
D ----------------------------------|
A ----------------------------------|4x
E -------4-----------2-------4------|
A -0-2-3---3-2-0-2-3---3-2-0---3-2--|
I've created sins upon myself...

B -----------|
F#-----------|
D -----------|
A -0-1-1-0---|
E -0-1-1-0---|
A -0-1-1-0---|
         Come with me...

B ----------------------------------|
F#----------------------------------|
D ----------------------------------|
A ----------------------------------|4x
E -------4-----------2-------4------|
A -0-2-3---3-2-0-2-3---3-2-0---3-2--|
Silence resonates within my desolation

B -----------|
F#-----------|
D -----------|
A -0-1-1-0---|
E -0-1-1-0---|
A -0-1-1-0---|
         Crawl inside

B -----------------------------------|
F#-----------------------------------|
D -----------------------------------|
A -----------------------------------|4x
E --------4-------5-------6-------5--|
A --0-2-3---0-3-4---0-4-5---0-3-4----|
Take me back, set me free from my fears...

Gtr.1
B -----------------------------------|
F#-----------------------------------|
D --7-----------7-7-9-9-12-12-12-12--|2x
A --7-7-5-5-5-5----------------------|
E --5-4-5-5-5-5-5-5-7-7-10-10-10-10--|
A ------5-5-5-5----------------------|
Lord... have found you...

B ----------------------------|
F#----------------------------|
D --7-------------------------|2x
A --7-7-5-5-5-5--0-2-5-5-5-5--|
E --5-4-5-5-5-5--0-2-5-5-5-5--|
A ------5-5-5-5--0-2-5-5-5-5--|
Lord... have found you...

Interlude:
B --0-----------------0----------------------|
F#--0-----------------0----------------------|
D --0-----------------0----------------------|
A --0--------/12------0----------\12---------|4x
E --0--------/12------0----------\12---------|
A --0--------/12------0----------\12---------|


Verse:
B ----------------------------------|
F#----------------------------------|
D ----------------------------------|
A ----------------------------------|8x
E -------4-----------2-------4------|
A -0-2-3---3-2-0-2-3---3-2-0---3-2--|
Take me back set me free from my fears...

B -----------|
F#-----------|
D -----------|
A -0-1-1-0---|
E -0-1-1-0---|
A -0-1-1-0---|

Bassline:

Gtr.1
B -----------------------------------|
F#-----------------------------------|
D --7-----------7-7-9-9-12-12-12-12--|2x
A --7-7-5-5-5-5----------------------|
E --5-4-5-5-5-5-5-5-7-7-10-10-10-10--|
A ------5-5-5-5----------------------|
Lord... have found you...

B ----------------------------|
F#----------------------------|
D --7-------------------------|2x
A --7-7-5-5-5-5--0-2-5-5-5-5--|
E --5-4-5-5-5-5--0-2-5-5-5-5--|
A ------5-5-5-5--0-2-5-5-5-5--|
Lord... have found you...

B --0-----------------0----------------------|
F#--0-----------------0----------------------|
D --0-----------------0----------------------|
A --0--------/12------0----------\12---------|4x
E --0--------/12------0----------\12---------|
A --0--------/12------0----------\12---------|


/END\^_^/m\
Tap to rate this tab
 
# A B C D E F G H I J K L M N O P Q R S T U V W X Y Z