Song name
# A B C D E F G H I J K L M N O P Q R S T U V W X Y Z

Quiet Riot - Dont Wanna Let You Go tab

-------------------------------------------------------------------------------
                                          DON'T WANNA LET YOU GO - Quiet Riot
-------------------------------------------------------------------------------
Tabbed by: cjog210
E-mail: cjog210@gmail.com

Tuning: Standard

This song is in D major.

Intro
e|---7--7---(7)-------7------------------------7--7---(7)--7-(7)-------------|
B|---8--7---(7)-------5--7---(7)---------------8--7---(7)--5-(5)----7---(7)--|
G|---9--7---(7)-------5--7---(7)---------------9--7---(7)--5-(5)----7---(7)--|
D|-----------------------0---(0)------------------------------------0---(0)--|
A|---------------------------------------------------------------------------|
E|---------------------------------------------------------------------------|

e|---7--7---(7)-------7------------------------7--7---(7)--7----(7)----------|
B|---8--7---(7)-------5--7---(7)---------------8--7---(7)--5----(5)----------|
G|---9--7---(7)-------5--7---(7)---------------9--7---(7)--5----(5)----------|
D|-----------------------0---(0)---------------------------------------------|
A|---------------------------------------------------------------------------|
E|---------------------------------------------------------------------------|
This is played after the intro and during the verse.
e|----------------------------------------------------------3----------------|
B|---------0------------------------------------0-------------3-------3------|
G|------------2--(2)-------------------------------2--(2)-------2-(2)---2----|
D|-0h2-----2--0--(0)-----2--0---(0)-----0h2-----2--0--(0)-----------------0--|
A|-----------------------3---------------------------------------------------|
E|---------------------------------------------------------------------------|
Here is the pre-chorus/chorus
Play this twice, then just play the intro 
e|----------------------------7--7---(7)-------7-----------------------------|
B|----------------------------8--7---(7)-------5--7---(7)--------------------|
G|--5--(5)------7--(7)--------9--7---(7)-------5--7---(7)--------------------|
D|--5--(5)------7--(7)----------------------------0---(0)--------------------|
A|--3--(3)------5--(5)-------------------------------------------------------|
E|---------------------------------------------------------------------------|

The rest of the song is a lot like this. There is a solo after the second verse.

************************************

| /   slide up
| \   slide down
| h   hammer-on
| p   pull-off
| ~   vibrato
| +   harmonic
| x   Mute note
| b   Bend
| pb  Pre-bend
| br  Bend release
| pbr Pre-bend release
| brb Bend release bend

************************************
Tap to rate this tab
 
# A B C D E F G H I J K L M N O P Q R S T U V W X Y Z