Quietdrive - Into The Ocean tab

This is an adapted version of the song. It was taught to me by the guitarist of Quietdrive.
This simplified version makes it easier to play for beginners.

Of course the notes aren't in the right place on the chorus. I'm sorry but I'm not going 
fix it because Ultimate Guitar should fix the system so things are in their right 
Just listen to the song, you'll figure it out.

PLEASE KEEP IN MIND: This is for purely acoustic guitar

E|-----------------------------------------------------------------|
B|------1-------1------1------1------1------1------1 -----1------1-|
G|------0-------0------0------0------0------0------2 -----2------2-|
D|-----------------------------------------------------------------|
A|--0-------0------------------------------------------------------|
E|-----------------3------3------0------0------1------1------1-----|

E|-------------------------------------------|
B|-----1-----1-----1------1-----1-----1-----1|
G|-----2-----2-----2------2-----2-----2-----2|
D|-------------------------------------------|
A|-------------------------------------------|
E|--1-----1------1-----1-----1-----1------1--|      x3
 I know trust...


E|---------------------------------------------------------------|
B|------1-------1------1------1------1 -----1------1-----1-------|
G|------0-------0------0------0------2 -----2------2-----2-------|
D|---------------------------------------------------------------|
A|--0-------0----------------------------------------------------|
E|-----------------3------3-------1------1------1-----1----------|   x4
  The arrow flies...


C               F                              Am                    G                         F
Throw myself back into the ocean and I've lived to tell the tale.

C                F                             Am                G                            F
Throw myself back into the ocean but it wouldn't take me back.

No it wouldn't take me back.


E|-----------------------------------------------------------------|
B|------1-------1------1------1------1------1------1 -----1------1-|
G|------0-------0------0------0------0------0------2 -----2------2-|
D|-----------------------------------------------------------------|
A|--0-------0------------------------------------------------------|
E|-----------------3------3------0------0------1------1------1-----|

E|-------------------------------------------|
B|-----1-----1-----1------1-----1-----1-----1|
G|-----2-----2-----2------2-----2-----2-----2|
D|-------------------------------------------|
A|-------------------------------------------|
E|--1-----1------1-----1-----1-----1------1--|      x3
                                                                                 I don't trust...


E|---------------------------------------------------------------|
B|------1-------1------1------1------1 -----1------1-----1-------|
G|------0-------0------0------0------2 -----2------2-----2-------|
D|---------------------------------------------------------------|
A|--0-------0----------------------------------------------------|
E|-----------------3------3-------1------1------1-----1----------|   x4
          The arrow flies...

C              F                               Am                     G                        F
Throw myself back into the ocean and I've lived to tell the tale, and I've lived to tell the tale.

C               F                             Am                 G                            F
Throw myself back into the ocean but it woudln't take me back.

No it wouldn't take me back.

C                                               F
My father said you did your best.

                                                            Am
You've torn your soul out of your chest.

                   G                           F
He said he made the same mistakes.

C
My mother wept.

                      Am                                                  G
She told me son I'll let you cry but just this once, because I've made the same

F
mistakes.


E|----------------------------------------------------------------|
B|------1-------1------1------1------1------1------1 -----1-------|
G|------0-------0------0------0------2------2------2 -----2-------|
D|----------------------------------------------------------------|
A|--0-------0-----------------------------------------------------|
E|-----------------3------3------1------1------1------1-----------|   x2

E|-------------------------------------------------------------|
B|------1-------1------1------1------1------1------1 -----1----|
G|------0-------0------0------0------2------2------2 -----2----|
D|-------------------------------------------------------------|
A|--0-------0--------------------------------------------------|
E|-----------------3------3------1------1------1------1--------|
     Throw myself...


E|-------------------------|
B|-----1-----1-----1------1|
G|-----2-----2-----2------2|
D|-------------------------|
A|-------------------------|
E|--1-----1------1-----1---|  x3

E|--------------------------|
B|-----1-----1------1------1|
G|-----0-----0------0------0|
D|--------------------------|
A|--0-----0-----------------|
E|---------------3------3---|
      No it would't...
Tap to rate this tab
 
# A B C D E F G H I J K L M N O P Q R S T U V W X Y Z