Song name
# A B C D E F G H I J K L M N O P Q R S T U V W X Y Z

Quincy Jones - Sanford And Son Theme tab

Song: Sanford & Son theme
Band: Quincy Jones
Tabbed by: punk_burnout101

I Think This is How It Goes

e-----0----------0-------------------|
b-------3----------3---0---------0---|
g-0-0--------0-0-----3---0---0-0---2-|
d------------------------------------|
a------------------------------------|
e------------------------------------|

e-----------------------------------|
b-0-3-0-------------------------1-3-|
g-------2---------------0-0---3-----|
d---------2-3-0---0-0-2-----2-------|
a-----------------------------------|
e-----------------------------------|

e-3---------3----1----0------|
b---------0----------------3-|
g---0-2-3------2----0--------|
d------------------------3---|
a----------------------------|
e----------------------------|

End like this:
e-------0----------0-------------------------------|
b---------3----------3---0-----------1-1---4-3---1-|
g-2-0-0--------0-0-----3---0---0-0-2-----2-------0-|
d------------------------------------------------2-|
a--------------------------------------------------|
e--------------------------------------------------|
Tap to rate this tab
 
# A B C D E F G H I J K L M N O P Q R S T U V W X Y Z