Song name
# A B C D E F G H I J K L M N O P Q R S T U V W X Y Z

R Kelly - In Those Jeans tab

Highlighted       Show chord diagrams
-------------------------------------------------------------------------------
			     R Kelly – In Those Jeans
-------------------------------------------------------------------------------
Tabbed by:knealebrown
Email: knealebrown@hotmail.co.uk

Tuning: Standard tuning no capo

THERE IS A LINK TO A VIDEO DEMO OF THIS SONG AT THE BOTTOM OF THE PAGE

There were no chord charts for this elsewhere so I decided to do one, im 100% positive 
chords fit to the song however they may not be the exact chords, enjoy!


There are really only two parts to this song,

1. The chorus and verse part (for which the chords are the same)
2. The middle 8 (split into two sections, first section having a run up)

…………………………………………………………

Chorus and verses

Chords Used:
D7, Am7, Gm7

e|--5-------5--------3--------5--------5----------------------|
B|--6-------5--------3--------5--------6----------------------|
G|--5-------5--------3--------5--------5----------------------|
D|--7-------5--------3--------5--------7----------------------|
A|--5-------7--------5--------7--------5----------------------|
E|----------5--------3--------5-------------------------------|


………………………………………………………….

Middle 8 first part

Chords Used:
Am7, D7, F, Gm, D7, Bbm7

              In    those   sexy    jeans
e|--0-----5----1-----3----5-----1-----0-----------------------|
B|--2-----6----1-----3----6-----3-----2-----------------------|
G|--0-----5----2-----3----5-----1-----0-----------------------|
D|--2-----7----3-----5----7-----3-----2-----------------------|
A|--0-----5----3-----5----5-----1-----0-----------------------|
E|-------------1-----3----------------------------------------|


…………………………………………………….

Middle 8 second part

Chords Used:
Am7, B, F, E

e|--0-----1-----1------0-----0---------------------------------|
B|--2-----3-----1------0-----2---------------------------------|
G|--0-----3-----2------1-----0---------------------------------|
D|--2-----3-----3------2-----2---------------------------------|
A|--0-----1-----3------2-----0---------------------------------|
E|--------------1------0---------------------------------------|


That’s all see this video for timings and more explanation.

http://www.youtube.com/watch?v=oQJdUJTiCRI
Tap to rate this tab
# A B C D E F G H I J K L M N O P Q R S T U V W X Y Z