Song name
# A B C D E F G H I J K L M N O P Q R S T U V W X Y Z

Ra - Tell Me tab

i messed up on the first 2. this is the beginning, but again without the second part in it.


E|--3-3-3p1------------------|
B|---------3-3-3-3p0---------|
G|---------------------------|  x2
D|---------------------------|
A|---------------------------|
D|---------------------------|

E|---------------------------|
B|---------------------------|
G|---------------------------|
D|--1p0h1~-1p0h1p0h3p1p0--0--|
A|--------------------3------|
D|---------------------------|

E|---------------------------|
B|---------------------------|
G|---------------------------|
D|--1p0h1~-1p0h1p0-----------|
A|---------------------------|
D|------------------0--------| i question on this note

sry this is all i have right now. ive been working on the rest almost 24-7 i have the 
and might tab that. other than that, if you want to or can help me determine the cords 
the verse, that would help. enjoy!
Tap to rate this tab
 
# A B C D E F G H I J K L M N O P Q R S T U V W X Y Z