Song name
# A B C D E F G H I J K L M N O P Q R S T U V W X Y Z

Rabbi Shergill - Challa tab

Tabs by imVirus (alam)

e----------------------------------------------------------|
B----------------------------------------------------------|
G--------5------------5------------------------------------|
D----5-7---7-7-7--5-7---7-7-7---9---3-5-3------------------|
A--7---------------------------------------7-7-------------|
E----------------------------------------------------------|

e----------------------------------------------------------|
B----------------------------------------------------------|
G--------5------------5------------------------------------|
D----7-5-7---7-7-7--5-7---7-7-7---9---3-5-3----------------|
A--7---------------------------------------7-7-------------|
E----------------------------------------------------------|
Tap to rate this tab
 
# A B C D E F G H I J K L M N O P Q R S T U V W X Y Z