Song name
# A B C D E F G H I J K L M N O P Q R S T U V W X Y Z

Racer X Paulgilbert - Scarified tab

Scarified (the complete tab) by Racer X played by paul Gilbert. I made some corrections
on my older post and after all those working hours and busy time, now at last I finally
finished writing this one yhey!! This is the complete tabs of the original scarified 
played live by the racer x. this is 100% accurate better than my last post so have patients
and keep on practicing so you could get the right pace and speed of this song

/ =slide forward       . =palm mute   ~ =vibrato  [] =scream  b^ =bend up
\ =slide backward      h =hammer      p =pulloff   T =tap	   bv =bend down


intro
e|-------------------------------|-------------------------|
B|-------------------------------|-------------------------|
G|-------------------------------|---------------------6~~-|
D|-------------------------------|---------------6-7-9-----|
A|---------------------------4---|---------5-7-9-----------|
E|-2-2-2-2-2-2-2-2-2-2-4-5-7---2-|-2/5-7-9-----------------|


e|-------------------------------|---------------------------|
B|-------------------------------|---------------------------|
G|-------------------------------|---7-6---------------------|
D|-------------------------------|-------9-7-6---------------|
A|---------------------------4---|-------------9-7-5---------|
E|-2-2-2-2-2-2-2-2-2-2-4-5-7---2-|-2-----------------9-7-5-4-|


e|-------------------------------|-------------------------|
B|-------------------------------|-------------------------|
G|-------------------------------|---------------------6~~-|
D|-------------------------------|---------------6-7-9-----|
A|---------------------------4---|---------5-7-9-----------|
E|-2-2-2-2-2-2-2-2-2-2-4-5-7---2-|-2/5-7-9-----------------|


e|-------------------------------|----------------------|
B|-------------------------------|----------------------|
G|-------------------------------|--------------------9-|
D|-------------------------------|---------------9-11-9-|
A|---------------------------4---|-------9-11-12--------|
E|-2-2-2-2-2-2-2-2-2-2-4-5-7---2-|-2/-12----------------|


String skipping

e|-14p10----------------10----------11h14p11-------|
B|-------------------------------------------------|
G|-------14p11----11h14-------11h14----------14p11-|
D|-------------12----------13----------------------|
A|-------------------------------------------------|
E|-------------------------------------------------|


e|-16p12----------------12----------13h16p13----------------|
B|-------------------------------------------------17b^19---|
G|-------16p13----13h16-------13h16----------16p13----------|
D|-------------14----------15-------------------------------|
A|----------------------------------------------------------|
E|----------------------------------------------------------|


e|-------------------------------------------------|
B|-------------------19-------------------19-------|
G|----------------------------------19-------------|
D|-23p19----19-23p19----23-19-21-23----23----23p19-|
A|-------23----------------------------------------|
E|-------------------------------------------------|




e|-------------------19-------------------19-------|
B|----------------------------------20-------------|
G|-23p19----19-23p19----23-19-21-23----23----23p19-|
D|-------23----------------------------------------|
A|-------------------------------------------------|
E|-------------------------------------------------|


e|-------------------------------------------------|
B|-------------------17----21-19-21-17----17-------|
G|-------------------------------------------------|
D|-21p18----18-21p18----21-------------21----21p18-|
A|-------21----------------------------------------|
E|-------------------------------------------------|


e|-------------------17----21-19-21-17----17-------|
B|-------------------------------------------------|
G|-21p18----18-21p18----21-------------21----21p18-|
D|-------21----------------------------------------|
A|-------------------------------------------------|
E|-------------------------------------------------|


e|-------------------10----14-12-14-10----10-------|
B|-------------------------------------------------|
G|-14p11----11-14p11----14-------------14----14p11-|
D|-------14----------------------------------------|
A|-------------------------------------------------|
E|-------------------------------------------------|


e|-------------------14----19-17-19-14----14-------|
B|-------------------------------------------------|
G|-19p16----16-19p16----19-------------19----19p16-|
D|-------18----------------------------------------|
A|-------------------------------------------------|
E|-------------------------------------------------|


e|-------------------9----13-11-13-9----9-------|
B|----------------------------------------------|
G|-13p10----10-13p10---13------------13---13p10-|
D|-------13-------------------------------------|
A|----------------------------------------------|
E|----------------------------------------------|


e|-------------------14----17-16-14----------------|
B|----------------------------------17-15-14-------|
G|-18p14----14-18p14----18-------------------16-14-|
D|-------18----------------------------------------|
A|-------------------------------------------------|
E|-------------------------------------------------|







e|-------------------9----13-11-13-9----9-------|
B|----------------------------------------------|
G|-13p10----10-13p10---13------------13---13p10-|
D|-------13-------------------------------------|
A|----------------------------------------------|
E|----------------------------------------------|



e|-------------------14/17p16p14----------17\-|
B|-14p10----10-14p10-------------17p16p14-----|
G|-------13-----------------------------------|
D|--------------------------------------------|
A|--------------------------------------------|
E|--------------------------------------------|


   T	    T	    T	     T	     T	      T	      T	       T
e|-------------------------------------------------------------------------|
B|-------------------------------------------------------------------------|
G|-------------------18p16h18-19p18p16-------------------16p14p16-18p16p14-|
D|-18p16h18-19p18p16-------------------16p14h16-18p16p14-------------------|
A|-------------------------------------------------------------------------|
E|-------------------------------------------------------------------------|

   T	    T	    T	     T	     T	      T
e|----------------------------------------------------------|
B|----------------------------------------------------------|
G|-------------------14p13h14-16p14p13-16p14h16-18p16p14-9~-|
D|-14p12h14-16p14p12----------------------------------------|
A|----------------------------------------------------------|
E|----------------------------------------------------------|



Back to intro
e|-------------------------------|-------------------------|
B|-------------------------------|-------------------------|
G|-------------------------------|---------------------6~~-|
D|-------------------------------|---------------6-7-9-----|
A|---------------------------4---|---------5-7-9-----------|
E|-2-2-2-2-2-2-2-2-2-2-4-5-7---2-|-2/5-7-9-----------------|


e|-------------------------------|---------------------------|
B|-------------------------------|---------------------------|
G|-------------------------------|---7-6---------------------|
D|-------------------------------|-------9-7-6---------------|
A|---------------------------4---|-------------9-7-5---------|
E|-2-2-2-2-2-2-2-2-2-2-4-5-7---2-|-2-----------------9-7-5-4-|


e|-------------------------------|-------------------------|
B|-------------------------------|-------------------------|
G|-------------------------------|---------------------6~~-|
D|-------------------------------|---------------6-7-9-----|
A|---------------------------4---|---------5-7-9-----------|
E|-2-2-2-2-2-2-2-2-2-2-4-5-7---2-|-2/5-7-9-----------------|






e|-------------------------------|----------------------|
B|-------------------------------|----------------------|
G|-------------------------------|--------------------9-|
D|-------------------------------|---------------9-11-9-|
A|---------------------------4---|-------9-11-12--------|
E|-2-2-2-2-2-2-2-2-2-2-4-5-7---2-|-2/-12----------------|




String skipping

e|-14p10----------------10----------11h14p11-------|
B|-------------------------------------------------|
G|-------14p11----11h14-------11h14----------14p11-|
D|-------------12----------13----------------------|
A|-------------------------------------------------|
E|-------------------------------------------------|


e|-16p12----------------12----------13h16p13----------------|
B|-------------------------------------------------17b^19---|
G|-------16p13----13h16-------13h16----------16p13----------|
D|-------------14----------15-------------------------------|
A|----------------------------------------------------------|
E|----------------------------------------------------------|


e|-------------------------------------------------|
B|-------------------19-------------------19-------|
G|----------------------------------19-------------|
D|-23p19----19-23p19----23-19-21-23----23----23p19-|
A|-------23----------------------------------------|
E|-------------------------------------------------|


e|-------------------19-------------------19-------|
B|----------------------------------20-------------|
G|-23p19----19-23p19----23-19-21-23----23----23p19-|
D|-------23----------------------------------------|
A|-------------------------------------------------|
E|-------------------------------------------------|


e|-------------------------------------------------|
B|-------------------17----21-19-21-17----17-------|
G|-------------------------------------------------|
D|-21p18----18-21p18----21-------------21----21p18-|
A|-------21----------------------------------------|
E|-------------------------------------------------|


e|-------------------17----21-19-21-17----17-------|
B|-------------------------------------------------|
G|-21p18----18-21p18----21-------------21----21p18-|
D|-------21----------------------------------------|
A|-------------------------------------------------|
E|-------------------------------------------------|


e|-------------------10----14-12-14-10----10-------|
B|-------------------------------------------------|
G|-14p11----11-14p11----14-------------14----14p11-|
D|-------14----------------------------------------|
A|-------------------------------------------------|
E|-------------------------------------------------|


e|-------------------14----19-17-19-14----14-------|
B|-------------------------------------------------|
G|-19p16----16-19p16----19-------------19----19p16-|
D|-------18----------------------------------------|
A|-------------------------------------------------|
E|-------------------------------------------------|


e|-------------------9----13-11-13-9----9-------|
B|----------------------------------------------|
G|-13p10----10-13p10---13------------13---13p10-|
D|-------13-------------------------------------|
A|----------------------------------------------|
E|----------------------------------------------|


e|-------------------14----17-16-14----------------|
B|----------------------------------17-15-14-------|
G|-18p14----14-18p14----18-------------------16-14-|
D|-------18----------------------------------------|
A|-------------------------------------------------|
E|-------------------------------------------------|



e|-------------------11----15-13-15-11----11-------|
B|-------------------------------------------------|
G|-15p12----12-15p12----15-------------15----15p12-|
D|-------15----------------------------------------|
A|-------------------------------------------------|
E|-------------------------------------------------|



e|-------------------16----19-18-16-----------------------------------|
B|----------------------------------19-17-16-----------------16b^17---|
G|-20p16----16-20p16----20-------------------18-16-15~~16-18----------|
D|-------20-----------------------------------------------------------|
A|--------------------------------------------------------------------|
E|--------------------------------------------------------------------|






e|-18b^19-18----16----18----19----18p16----18b^19bv18-16-19b^21-19b^21-19b^21-19~~---|
B|----------17----17----17----17-------17--------------------------------------------|
G|-----------------------------------------------------------------------------------|
D|-----------------------------------------------------------------------------------|
A|-----------------------------------------------------------------------------------|
E|-----------------------------------------------------------------------------------|



e|-4-7---4--------------------------------------------------------------------------|
B|-----7---4-7---4------------------------------------------------------------------|
G|-------------6---4-6---4-------------------------------4---4-[6bv8]b6-[4]~~-[6]~~-|
D|---------------------6---4-6---4-------------------4-6---6------------------------|
A|-----------------------------6---4-6---4-----4---6--------------------------------|
E|-------------------------------------7---4-7---4----------------------------------|


e|-----------------------------------------------|-------|
B|------------------12-12-11-11------------------|-------|
G|-------------3-4---///9--9--9--------------3-4-|-------|
D|-2-2-2-2-2-2-3-4---///9--9--9--2-2-2-2-2-2-3-4-|-2-4-6-|
A|-2-2-2-2-2-2-1-2---------------2-2-2-2-2-2-1-2-|-2-4-6-|
E|-0-0-0-0-0-0-------------------0-0-0-0-0-0-----|-0-2-4-|


e|-----------------------------------------------------------|-----------------|
B|-----------------------------------------------------------|-19b^21bv19-16---|
G|----------13----13-15-16-15h16p15p13-15-16-18-18b^20bv18-16-|----------------|
D|----13-------13--------------------------------------------|-----------------|
A|-11----11--------------------------------------------------|-----------------|
E|-----------------------------------------------------------|-----------------|


e|-18b^19bv18-16---------|--------------------------------------------------------|
B|--------------19b^20~~-|--------------------------------------------------------|
G|-----------------------|-------6--------8----------11----------13----------15---|
D|-----------------------|-6-8-9---8-9-11---11-13-14----13-14-16----14-16-18------|
A|-----------------------|--------------------------------------------------------|
E|-----------------------|--------------------------------------------------------|





e|-------------------------------------|-------------------------------------------------|
B|-------------------------------------|-------------------------------------------------|
G|----------15----15----------15----15-|----------15----------15----15----------15----15-|
D|-14-16-18----18----14-16-18----18----|-14-16-18----14-16-18----18----14-16-18----18----|
A|-------------------------------------|-------------------------------------------------|
E|-------------------------------------|-------------------------------------------------|


e|-------------------------------------------------|----------16-18-19-18h19p18p16----16---------|
B|-------------------------------------------------|-16h17h19----------------------19----19p17p16|
G|----------15----------15----15----------15----15-|---------------------------------------------|
D|-14-16-18----14-16-18----18----14-16-18----18----|---------------------------------------------|
A|-------------------------------------------------|---------------------------------------------|
E|-------------------------------------------------|---------------------------------------------|


e|-------------------------------------16h18p16------------------------------|
B|----16h17h19-17h19p17p16----16h17h19----------19p17p16-19b-19b-19b-19b21~~-|
G|-18----------------------18------------------------------------------------|
D|---------------------------------------------------------------------------|
A|---------------------------------------------------------------------------|
E|---------------------------------------------------------------------------|



e|-------------------------------|-------------------------|
B|-------------------------------|-------------------------|
G|-------------------------------|---------------------6~~-|
D|-------------------------------|---------------6-7-9-----|
A|---------------------------4---|---------5-7-9-----------|
E|-2-2-2-2-2-2-2-2-2-2-4-5-7---2-|-2/5-7-9-----------------|


e|-------------------------------|---------------------------|
B|-------------------------------|---------------------------|
G|-------------------------------|---7-6---------------------|
D|-------------------------------|-------9-7-6---------------|
A|---------------------------4---|-------------9-7-5---------|
E|-2-2-2-2-2-2-2-2-2-2-4-5-7---2-|-2-----------------9~------|


Here comes the tricky part using arpeggio string skipping


e|-9--------------------9h12p9h12p9-14p12p9---------|-9--------------------9h12p9h12p9-14p12p9--|
B|--------------------------------------------------|-------------------------------------------|
G|---14p11p9----9h11h14---------------------14p11p9-|---14p11p9----9h11h14----------------------|
D|--------------------------------------------------|-------------------------------------------|
A|-----------12-------------------------------------|-----------12------------------------------|
E|--------------------------------------------------|-------------------------------------------|

e|---------|-9--------------------9h12p9h12p9-15p12p9---------|-12----------------------|
B|---------|--------------------------------------------------|-------------------------|
G|-14p11p9-|---15p12p9----9h12h15---------------------15p12p9-|----18p15p12----12h15h18-|
D|---------|--------------------------------------------------|-------------------------|
A|---------|-----------13-------------------------------------|-------------16----------|
E|---------|--------------------------------------------------|-------------------------|


e|-12h15p12h15p12-18p15p12----------|-11----------------------11h14p11h14p11-16p14p11----------|
B|----------------------------------|----------------------------------------------------------|
G|-------------------------18p15p12-|----16p13p11----11h13h16-------------------------16p13p11-|
D|----------------------------------|----------------------------------------------------------|
A|----------------------------------|-------------14-------------------------------------------|
E|----------------------------------|----------------------------------------------------------|





e|-11----------------------11h14p11h14p11-16p14p11----------|-11----------------------|
B|----------------------------------------------------------|-------------------------|
G|----16p13p11----11h13h16-------------------------16p13p11-|----16p13p10----10h13h16-|
D|----------------------------------------------------------|-------------------------|
A|-------------14-------------------------------------------|-------------14----------|
E|----------------------------------------------------------|-------------------------|

e|-10h13p10h13p10-16p13p10----------|-13----------------------13h16p13h16p13-19-|
B|----------------------------------|-------------------------------------------|
G|-------------------------16p13p10-|----19p16p13----13h16h19-------------------|
D|----------------------------------|-------------------------------------------|
A|----------------------------------|-------------17----------------------------|
E|----------------------------------|-------------------------------------------|

							Add final adlibs
e|--------------------------------------------------------------------------|
B|--------------------------------------------------------------------------|
G|----------12----------13----------14----------16--------------------------|
D|-11-12-14----12-14-16----14-16-17----16-17-19-----------------------------|
A|--------------------------------------------------------------------------|
E|--------------------------------------------------------------------------|
 for comments and suggestion visit my account on facebook night3y3@yahoo.com or email me
Tap to rate this tab
# A B C D E F G H I J K L M N O P Q R S T U V W X Y Z