Guitaretab - guitar tabs
Song name
# A B C D E F G H I J K L M N O P Q R S T U V W X Y Z

Racer X - Godzilla tab

just watchin the snowball of doom and heres what i got:
tuning: A a d g b e
(get as heavy a gauge as you can for low A, or do it like me... with a seven dropped 
string.)
[ Tab from: http://www.guitaretab.com/r/racer-x/182159.html ]
    intro
|----------------------------------------------------------------|
|----------------------------------------------------------------|
|----------------------------------------------------------------|
|----------------------------------------------------------------|
|----------------------------------------------------------------|
|-0~~-0~~~--5-7-2-3-3~~~~~~---9-10-3-----------------------------|
                       ^With Pinch
   the verses
|----------------------------------------------------------------|
|-----10b8---------10b8------------------------------------------|
|----------------------------------------------------------------|
|----------------------------------------------------------------|
|----------------------------------------------------------------|
|-0~~------5-8-2-3------9-10-3-----------------------------------|

    the chorus
|----------------------------------------------------------------|
|----------------------------------------------------------------|
|----------------------------------------------------------------|
|----------------------------------------------------------------|
|----------------------------------------------------------------|
|-11-11-11-11-9-9-9-9-8-8-8-8-6-6-6-6----------------------------|
Related for Godzilla tab
Advertisement will be closed in 10 seconds