Song name
# A B C D E F G H I J K L M N O P Q R S T U V W X Y Z

Rachel Portman - Caravan tab

It's a work in progress, people, but I'm 99% sure what I've gotten so far is dead
on, so just bear with me while I figure it out. It's a slower song, so just try to
match it up.

Oh, and I don't know any chords, so you won't have those either.. this is just the
main riff. My apologies for being a newbie gutarist. :)

                                                 
E|--------------------------|-------------------------|---------------------|
B|--------------------4-----|--------------4----------|---------------------|
G|--4-------5-4---2-4---4-4-|----5-4---2-4---4-4---5-4|--5-4-2-0------------|
D|--------------4-----------|--------4----------------|----------4-2-1-2----|
A|--------------------------|-------------------------|---------------------|
E|--------------------------|-------------------------|---------------------|



E|---------------------------------|
B|-------------------5-4-------5-4-|
G|-4-4h5-4-5-4---2-4-----5-4-------|
D|-------------4-------------------|
A|---------------------------------|
E|---------------------------------|


Sorry guys, that's all I can figure out at the moment.. Like I said, give me some
more time and I'll eventually come back and add more. Or, if you can figure it out,
tab it up and send it to me. 

Or you can just send me death threats. Either way.

Saiy_Vegetto@lycos.com
Tap to rate this tab
 
# A B C D E F G H I J K L M N O P Q R S T U V W X Y Z