Song name
# A B C D E F G H I J K L M N O P Q R S T U V W X Y Z

Rachelle Ann Go - From The Start tab

Help us improve GuitareTab! Take a short survey!
-----------------------------------------------------------------------------
			    From the Start-Ryan Cabrera
-----------------------------------------------------------------------------
Tabbed by: Cari
Email:Crh625@yahoo.com

*hey everyone..this is tab number 2 from me. Some of the chords may sound a little funny 
if you have any suggestions, please let me know!*

Tuning: standard

Intro/verse
e|---4-----3-----2-----0-------|
B|---4-----3-----2-----0-------|
G|---4-----4-----3-----1-------|
D|---6-----3-----4-----2-------|
A|---6-----5-----4-----2-------|
E|---4-----3-----2-----0-------|

chorus
e|---7-----7-----4-----2-----0--------4---2---0---|
B|---7-----7-----4-----2-----0--------4---2---0---|
G|---8-----8-----4-----3-----1---x2---4---3---1---|
D|---9-----7-----6-----4-----2--------6---4---2---|
A|---9-----9-----6-----4-----2--------6---4---2---|
E|---7-----7-----4-----2-----0--------4---2---0---|

repeat verse and chorus

bridge
e|---0-----2-----4-----7-----4-----2----0-------|
B|---0-----2-----4-----7-----4-----2----0-------|
G|---1-----3-----4-----8-----4-----3----1-------|
D|---2-----4-----6-----9-----6-----4----2-------|
A|---2-----4-----6-----9-----6-----4----2-------|
E|---0-----2-----4-----7-----4-----2----0-------|

repeat chorus till the end
Related for From The Start tab