Song name
# A B C D E F G H I J K L M N O P Q R S T U V W X Y Z

Racoon - Brother tab

Title     : Brother
Artist    : Racoon
Album     : Another Day
Capo      : none
Setting   : Eb-Ab-Db-Gb-Bb-Eb
Tabbed by : Marcel Bamberg!!
-------------------------------------------------

Akkoordschema:
G    : 320033
C    : x32010
Cadd9: x32030
Aadd9: x02200
D    : xx0232

Riff 1 (Intro + Verses):
    G5         Add9             C    Cadd9
e|-------3-----2-p0----------|--0------------------------|
B|-------3-----------3-------|-------3------------3/5\3--|
G|------------------------0--|------------0--------------|
D|-------------2-------------|---------------------------|
A|---------------------------|--3--------------3---------|
E|--3------------------------|---------------------------|
“It’s four o’clock,            “He’s into deep,
        the rain has stopped.”          he ran out the luck.”

    G5         Aadd9            C    Cadd9
e|-------3-----2-p0----------|------------3--------------|
B|-------3-----------3-------|--1----3-----------3-------|
G|------------------------0--|------------------------0--|
D|-------------2-------------|---------------------------|
A|---------------------------|--3------------------------|
E|--3------------------------|---------------------------|
   “Nowhere he can go.” (Etc.)                      “(If you)

Riff 2 (Chorus):
   D     G      Cadd9          D     G      Cadd9
e|---------------------------|---------------------------|
B|-0---3-0-------------------|-----3-0-3--3-3---1p0------|
G|---2---0--0-----0----------|---2---0--0-----0-----0----|
D|-0----------0------2—-0----|-0----------0---2-------2-0|
A|--------------3----------3-|--------------3------------|
E|-------3-------------------|-------3-------------------|
   can’t give her space,     we’re afraid it’s too late.”

   D     G      Cadd9          D     G      Cadd9
e|---------------------------|---------------------------|
B|-0---3-0-------------------|-----3-0------1------------|
G|---2---0--0-----0----------|---2---0--0---0------------|
D|-0----------0------2—-0----|-0----------0--------------|
A|--------------3----------3-|--------------3------------|
E|-------3-------------------|---------------------------|
 “You got to let her go now,    Or we can’t help you,
                                             brother.”

	
Verse 1:
     G5                Aadd9
It’s four o’clock, the rain has stopped
     C      Csus4
He’s into deep, he ran out the luck
G5       Aadd9 C  Csus4
Nowhere he can go
    G5                    Aadd9
And his old friends, they left the spot
  C     Csus4
Because of the little time he’s got
G5             Aadd9      C      Csus4
Not that they ever warned him though

Chorus:
   D     G      Cadd9          D     G      Cadd9
e|---------------------------|---------------------------|
B|-0---3-0-------------------|-----3-3----3-3---1p0------|
G|---2---0--0-----0----------|---2---0--0-----0-----0----|
D|-0----------0------2—-0----|-0----------0---2-------2-0|
A|--------------3----------3-|--------------3------------|
E|-------3-------------------|-------3-------------------|
   can’t give her space,     we’re afraid it’s too late.”

   D     G      Cadd9          D     G      Cadd9
e|---------------------------|---------------------------|
B|-0---3-0-------------------|-----3-0------1------------|
G|---2---0--0-----0----------|---2---0--0---0------------|
D|-0----------0------2—-0----|-0----------0--------------|
A|--------------3----------3-|--------------3------------|
E|-------3-------------------|---------------------------|
 “You got to let her go now,    Or we can’t help you,
                                             brother.”
   G5         Add9             C    Cadd9
e|-------3-----2-p0----------|--0------------------------|
B|-------3-----------3-------|-------3------------3/5\3--|
G|------------------------0--|------------0--------------|
D|-------------2-------------|---------------------------|
A|---------------------------|--3--------------3---------|
E|--3------------------------|---------------------------|

    G5         Aadd9            C    Cadd9
e|-------3-----2-p0----------|------------3--------------|
B|-------3-----------3-------|--1----3-----------3-------|
G|------------------------0--|------------------------0--|
D|-------------2-------------|---------------------------|
A|---------------------------|--3------------------------|
E|--3------------------------|---------------------------|

Verse 2: (Riff 1)
All he thinks, the love is gone
The broken-hearted, they must be strong
You still got us
Well there is this yearning in the stomach
Pain and doubt, ‘bout why she done it
And pride to tell him to shut up

Chorus:
   D     G      Cadd9          D     G      Cadd9
e|---------------------------|---------------------------|
B|-0---3-0-------------------|-----3-3----3-3---1p0------|
G|---2---0--0-----0----------|---2---0--0-----0-----0----|
D|-0----------0------2—-0----|-0----------0---2-------2-0|
A|--------------3----------3-|--------------3------------|
E|-------3-------------------|-------3-------------------|
   can’t give her space,     we’re afraid it’s too late.”

   D     G      Cadd9          D     G      Cadd9
e|---------------------------|---------------------------|
B|-0---3-0-------------------|-----3-0------1------------|
G|---2---0--0-----0----------|---2---0--0---0------------|
D|-0----------0------2—-0----|-0----------0--------------|
A|--------------3----------3-|--------------3------------|
E|-------3-------------------|---------------------------|
 “You got to let her go now,    Or we can’t help you,
                                             brother.”

Musical Bridge:
   G5         Add9             C    Cadd9
e|-------3-----2-p0----------|--0------------------------|
B|-------3-----------3-------|-------3------------3/5\3--|
G|------------------------0--|------------0--------------|
D|-------------2-------------|---------------------------|
A|---------------------------|--3--------------3---------|
E|--3------------------------|---------------------------|

    G5         Aadd9            C    Cadd9
e|-------3-----2-p0----------|------------3--------------|
B|-------3-----------3-------|--1----3-----------3-------|
G|------------------------0--|------------------------0--|
D|-------------2-------------|---------------------------|
A|---------------------------|--3------------------------|
E|--3------------------------|---------------------------|

   G5         Add9             C    Cadd9
e|-------3-----2-p0----------|--0------------------------|
B|-------3-----------3-------|-------3------------3/5\3--|
G|------------------------0--|------------0--------------|
D|-------------2-------------|---------------------------|
A|---------------------------|--3--------------3---------|
E|--3------------------------|---------------------------|

    G5         Aadd9            C    Cadd9
e|-------3-----2-p0----------|------------3--------------|
B|-------3-----------3-------|--1----3-----------3-------|
G|------------------------0--|------------------------0--|
D|-------------2-------------|---------------------------|
A|---------------------------|--3------------------------|
E|--3------------------------|---------------------------|

Outro:
   D     G      Cadd9          D     G      Cadd9
e|---------------------------|---------------------------|
B|-0---3-0-------------------|-----3-3----3-3---1p0------|
G|---2---0--0-----0----------|---2---0--0-----0-----0----|
D|-0----------0------2—-0----|-0----------0---2-------2-0|
A|--------------3----------3-|--------------3------------|
E|-------3-------------------|-------3-------------------|
“If you’re willing to fight,  Then you’ll make it all right.”

   D     G      Cadd9          D     G      Cadd9
e|---------------------------|---------------------------|
B|-0---3-0-------------------|-----3-0------1------------|
G|---2---0--0-----0----------|---2---0--0---0------------|
D|-0----------0------2—-0----|-0----------0--------------|
A|--------------3----------3-|--------------3------------|
E|-------3-------------------|---------------------------|
 “You just got to let her go now,  Or we can’t help you,
                                            brother.”
Tap to rate this tab
# A B C D E F G H I J K L M N O P Q R S T U V W X Y Z