Song name
# A B C D E F G H I J K L M N O P Q R S T U V W X Y Z

Racoon - Oceaan tab

Racoon  Oceaan

Op sommige plaatsen staan de basnoten niet op gelijke afstand. 
Ze worden in het couplet gespeeld op elke vierde tel.
Ook in het refrein en de brug zijn de basnoten in een gelijk ritme.
De hogere noten worden (vaak) op de zestiende tellen gespeeld. 
Veel succes!

Capo II

Intro and verse:   
      G                        Em
e|--------------------------------------------------------------------------|
B|--------------------------------------------------------------------------|
G|-----------------------------0--p--2------0-------------------------------|
D|--------------------0-----------------------------2--p--0-----------------|
A|-------0--p--2------------------------------------------------------------|
E|----3--3---------3-----3-----0---------0-----0----0-----------------------|

      G                         Em 
e|--------------------------------------------------------------------------|
B|--------------------------------------------------------------------------|
G|--------------------------------------------------------------------------|
D|--------------------0---------0--p--2------0------------------------------|
A|--------0--p--2-----------------------------------2--p--0-----------------|
E|----3---3---------3---3-------0---------0-----0---0-----------------------|

Chorus: 
      C                Am          Em               D   
e|------------------------------------0-----0-------2------2-----2--p--3----|
B|---------1-------------1----0------0-------0------------------------------|
G|-------0-------0------2-------------------------------2-------------------|
D|-------------2------------------------------------0---------0-------------|
A|----3------3--------0-----0-----------------------------------------------|
E|---------------------------------0-----0----------------------------------|

Bridge (2x):
     F                              G
e|-------------------------------------------------------------------|
B|---------------------1--------------------------0-------3----------|
G|-------------2-----------------------0-----------------------------|3x
D|---3---------------------------------------------------------------|
A|-------------------------------------------------------------------|
E|---1-----1------1--------1--------3------3-------3-------3---------|

     Em                         F
e|-------------------------------------------------------------------|
B|----------------0-----------------------1--------------------------|
G|---------0-----------------------2---------------------------------|1x
D|---2----------------------2----------------------------------------|
A|-------------------------------------------------------------------|
E|---0--0-----0-------0-----1---1-----1-------1----------------------|
Tap to rate this tab
 
# A B C D E F G H I J K L M N O P Q R S T U V W X Y Z