Song name
# A B C D E F G H I J K L M N O P Q R S T U V W X Y Z

Radical Something - Spread Your Wings tab

Radical Something - Spread Your WIngs


Chords:
e|---5---5---4---4---4---4---3---3|
B|---5---5---4---4---4---4---4---4|
G|---5---5---6---6---4---4---5---5|
D|---7---7---6---6---6---6---5---5|
A|--------------------------------|
E|--------------------------------|
Fill:
e|--------------------------------|
B|----5------4-------4------4-----|
G|---5-5----6-------4-4----5------|
D|--7------6-------6------5-------|
A|-7--------------6---------------|
E|--------------------------------|

Pretty simple. Sounds better with a mellow tone.
Tap to rate this tab
 
# A B C D E F G H I J K L M N O P Q R S T U V W X Y Z