Song name
# A B C D E F G H I J K L M N O P Q R S T U V W X Y Z

Radio Birdman - New Race tab

-----------------------------------------------------------------------------
-			     New Race - Radio Birdman
------------------------------------------------------------------------------
Tabbed by:
Email:

Tuning:STANDARD

This is the main riff to the song New Race by Radio Birdman, i couldn't figure out the 
but i got this.

e|---------------------------------------------------------------------------|
B|-7-7-7-7-7-7-7-7-5-5-------------------------------------------------------|
G|-7-7-7-7-7-7-7-7-5-5-4-4---------------------------------------------------|
D|-7-7-7-7-7-7-7-7-5-5-5-5---------------------------------------------------|
A|-5-5-5-5-5-5-5-5-3-3-5-5---------------------------------------------------|
E|---------------------3-3---------------------------------------------------|
Tap to rate this tab
 
# A B C D E F G H I J K L M N O P Q R S T U V W X Y Z