Song name
# A B C D E F G H I J K L M N O P Q R S T U V W X Y Z

Radiohead - You And Whose Army tab

hey hey,

Song: You & Whose Army?
Artist: Radiohead
Album: Amnesiac
Year: 2001
Tempo: 66bpm
Key: D#m
Time Signature: 4/4
Tunning: Standard (EADGBE)

Verse 1:
   D#m       G#        C#m       F#        Bm        E
E------------------------------------------2-----------------|
B--7----7----4----4----5----5----2----2----3----3----0----0--|
G--8----8----5----5----6----6----3----3----4----4----1----1--|
D--8----8----6----6----6----6----4----4----4----4----2----2--|
A--6----6----6----6----4----4----4----4----2----2----2----2--|
E------------4----4--------------2----2--------------0----0--|

   A         C#m       D#m       G#        C#m       F#
E------------------------------------------4-----------------|
B--5----5----5---------7----7----4----4----5----5----2----2--|
G--6----6----6---------8----8----5----5----6----6----3----3--|
D--7----7----6---------8----8----6----6----6----6----4----4--|
A--7----7----4---------6----6----6----6----4----4----4----4--|
E--5----5------------------------4----4--------------2----2--|

   Bm        E         A         C#m       E         A
E------------------------------------------------------------|
B--3----3----0----0----5----5----5----5--------------5----5--|
G--4----4----1----1----6----6----6----6----1----1----6----6--|
D--4----4----2----2----7----7----6----6----2----2----7----7--|
A--2----2----2----2----7----7----4----4----2----2----7----7--|
E------------0----0----5----5--------------0----0----5----5--|

   A         C#m
E--------------------|
B--5---------5----5--|
G-----6------6----6--|
D--------7---6----6--|
A------------4----4--|
E--------------------|

Verse 2:
   D#m       G#        C#m       F#        Bm        E
E------------------------------------------2-----------------|
B--7----7----4----4----5----5----2----2----3----3----0----0--|
G--8----8----5----5----6----6----3----3----4----4----1----1--|
D--8----8----6----6----6----6----4----4----4----4----2----2--|
A--6----6----6----6----4----4----4----4----2----2----2----2--|
E------------4----4--------------2----2--------------0----0--|

   A         C#m       D#m       G#        C#m       F#
E------------------------------------------4-----------------|
B--5----5----5---------7----7----4----4----5----5----2----2--|
G--6----6----6---------8----8----5----5----6----6----3----3--|
D--7----7----6---------8----8----6----6----6----6----4----4--|
A--7----7----4---------6----6----6----6----4----4----4----4--|
E--5----5------------------------4----4--------------2----2--|

   Bm        E         A         C#m       E         A
E------------------------------------------------------------|
B--3----3----0----0----5----5----5----5--------------5----5--|
G--4----4----1----1----6----6----6----6----1----1----6----6--|
D--4----4----2----2----7----7----6----6----2----2----7----7--|
A--2----2----2----2----7----7----4----4----2----2----7----7--|
E------------0----0----5----5--------------0----0----5----5--|

   A         C#m       D#m7b5    G#7       D#m7b5    G#7
E------------------------------------------------------------|
B--5----5----5----5----7----7----4----4----7----7----4----4--|
G--6----6----6----6----6----6----5----5----6----6----5----5--|
D--7----7----6----6----7----7----4----4----7----7----4----4--|
A--7----7----4----4----6----6----6----6----6----6----6----6--|
E--5----5------------------------4----4--------------4----4--|

   C#m       C#m/B     A#m7b5              D#m7b5    G#7
E------------------------------------------------------------|
B--5----5----------5---------5-------5-----7----7----4----4--|
G--6----6----------4---------6-------6-----6----6----5----5--|
D--6----6-------6---------6----------6-----7----7----4----4--|
A--4----4------------------------------4-/-6----6----6----6--|
E------------7---------6-----------5-----------------4----4--|

   D#m7b5    G#7
E--------------------|
B--7----7----4----4--|
G--6----6----5----5--|
D--7----7----4----4--|
A--6----6----6----6--|
E------------4----4--|

   C#m       C#m/B     A#m7b5              D#m7b5    G#7
E------------------------------------------------------------|
B--5----5----------5---------5-------5-----7----7----4----4--|
G--6----6----------4---------6-------6-----6----6----5----5--|
D--6----6-------6---------6----------6-----7----7----4----4--|
A--4----4------------------------------4-/-6----6----6----6--|
E------------7---------6-----------5-----------------4----4--|

   D#m7b5    G#7
E--------------------|
B--7----7----4----4--|
G--6----6----5----5--|
D--7----7----4----4--|
A--6----6----6----6--|
E------------4----4--|

   C#m       C#m/B     A#m7b5  C#5
E-------------------------------------------|
B--5--------------5-------------------------|
G--6----6---------4---------4--6----6----6--|
D--6----6------6----6----4--4--6----6----6--|
A--4----4----------------------4----4----4--|
E------------7---------6--------------------|

   C#5       E         F#      C#5
E-------------------------------------------|
B-------------------------------------------|
G--6----6----1----1----3-3-3---6----6----6--|
D--6----6----2----2----4-4-4---6----6----6--|
A--4----4----2----2----4-4-4---4----4----4--|
E------------0----0----2-2-2----------------|

   C#5       E         F#    C#5
E-------------------------------------------|
B-------------------------------------------|
G--6----6----1----1----3-3-3-6--------9-9-9-|
D--6----6----2----2----4-4-4-6--------9-9-9-|
A--4----4----2----2----4-4-4-4--------------|
E------------0----0----2-2-2----------------|

   C#5       E         F#    C#5
E-------------------------------------------|
B-------------------------------------------|
G--9\8-6--6--9\8-6--6--3-3-3-6--------9-9-9-|
D--9\8-6--6--9\8-6--6--4-4-4-6--------9-9-9-|
A----------------------4-4-4-4--------------|
E----------------------2-2-2----------------|

   C#5       E         F#    C#5
E-------------------------------------------|
B-------------------------------------------|
G--9\8-6--6--9\8-6--6--3-3-3-6--------9-9-9-|
D--9\8-6--6--9\8-6--6--4-4-4-6--------9-9-9-|
A----------------------4-4-4-4--------------|
E----------------------2-2-2----------------|

   C#5       E         F#    C#5
E-------------------------------------------|
B-------------------------------------------|
G--9\8-6--6--9\8-6--6--2-3-4-6--------9-9-9-|
D--9\8-6--6--9\8-6--6--------6--------9-9-9-|
A----------------------------4--------------|
E-------------------------------------------|

   C#5       E         F#    C#5
E-------------------------------------------|
B-------------------------------------------|
G--6----6----1----1----3-3-3-6--------9-9-9-|
D--6----6----2----2----4-4-4-6--------9-9-9-|
A--4----4----2----2----4-4-4-4--------------|
E------------0----0----2-2-2----------------|

   C#5       E         F#    C#5
E-------------------------------------------|
B-------------------------------------------|
G--9\8-6--6--9\8-6--6--3-3-3-6--------9-9-9-|
D--9\8-6--6--9\8-6--6--4-4-4-6--------9-9-9-|
A----------------------4-4-4-4--------------|
E----------------------2-2-2----------------|

   C#5       E         F#    C#5
E-------------------------------------------|
B-------------------------------------------|
G--9\8-6--6--9\8-6--6--3-3-3-6--------9-9-9-|
D--9\8-6--6--9\8-6--6--4-4-4-6--------9-9-9-|
A----------------------4-4-4-4--------------|
E----------------------2-2-2----------------|

   C#5       E         F#    C#5
E-------------------------------------------|
B-------------------------------------------|
G--9\8-6--6--9\8-6--6--2-3-4-6--------9-9-9-|
D--9\8-6--6--9\8-6--6--------6--------9-9-9-|
A----------------------------4--------------|
E-------------------------------------------|

   C#5       E         F#    C#5
E-------------------------------------------|
B-------------------------------------------|
G--6----6----1----1----3-3-3-6--------------|
D--6----6----2----2----4-4-4-6--------------|
A--4----4----2----2----4-4-4-4--------------|
E------------0----0----2-2-2----------------|

   C#5       E         F#    C#5
E-------------------------------------------|
B-------------------------------------------|
G--6----6----1----1----3-3-2-6--------------|
D--6----6----2----2----4-4---6--------------|
A--4----4----2----2----4-4---4--------------|
E------------0----0----2--------------------|
Tap to rate this tab
# A B C D E F G H I J K L M N O P Q R S T U V W X Y Z