Song name
# A B C D E F G H I J K L M N O P Q R S T U V W X Y Z

Radiohead - Videotape tab

-----------------------------------------------------------------------------
			     VIDEOTAPE - Radiohead
-----------------------------------------------------------------------------
Tabbed by: TheNotObnoxious
Email: Darcphyre101@hotmail.com

Such an amazing song, I couldn't find a really good tab for this though...
This is all just the piano part tabbed out for guitar, it probably isn't asolutely 
but I'd say around 97% I guess. =D

Tuning: Standard

Intro:
e|-5-4-4-2--5-4-4-2--5-4-5-5--5-4-4-2--5-4-4-2-|
B|-5-2-2-2--5-5-5-5--5-5-5-5--2-2-2-2--2-2-2-2-|
G|---------------------------------------------|
D|---------------------------------------------|
A|---------------------------------------------|
E|---------------------------------------------|

Here is the main riff:
(This is just a guidline, it's not completely right. Just mess around with it;D)
e|-5-4-4-2--5-4-4-2--5-4-4-2--5-4-4-2-----------|
B|-2-2-2-2--2-2-2-2--5-5-5-5--5-5-5-5-----------|
G|----------------------------------------------|
D|----------------------------------------------|
A|----------------------------------------------|
E|----------------------------------------------|

This is just some part I heard in the song with some bass notes, it's fairly difficult 
first but you get used to it :)
e|-5-4-4-2---    -5-4-4-2--     -5-4-4-2--|
B|-5-5-5-----    -2-2-2-2--     -2-2-2-2--|
G|-----------X2  ----------X2   ----------|X2
D|-----------    -0-0-0-0-- (or)----------|
A|-4-4-4-4---    ----------     -5-5-5-5--|
E|-----------    ----------     ----------|
                                 (This one sounds better for some reason)


That's it! Mess around with it!
I appreciate HELPFUL critisism so comment rate, just don't start flaming please...
Thnx!
Tap to rate this tab
# A B C D E F G H I J K L M N O P Q R S T U V W X Y Z