Song name
# A B C D E F G H I J K L M N O P Q R S T U V W X Y Z

Radiohead - Reckoner tab

Help us improve GuitareTab! Take a short survey!
********************************************************************************
*                                                                              *
*   Radiohead released Reckoner as a single with each stem separately in       *
*   order for DJs to remix the song. I also eagerly downloaded the stems and   *
*   transcribed them for my huge guitar pro tab. Follow the link to my tab:    *
*   www.ultimate-guitar.com/tabs/r/radiohead/reckoner_ver2_guitar_pro.htm      *
*                                                                              *
********************************************************************************
    _______________
   / Radiohead    /
  / Reckoner     /
 / In Rainbows  /
/______________/

There are three guitars playing in this song:
Two electric guitars with a slight overdrive and a steel-stringed acoustic.
For the intro/verses the acoustic strums the chords to the left and one of the
electrics fingerpicks the chords to the right.
For the bridge one electric strums the chords to left and another one strums the
chords to the right.

 Intro/Verses
    C   Em   D   D   A       C   Em    D    D    A
:------------------------ ---------------------------:
:---1---0----3---3---2--- -----------------10---10---:
:---0---0----2---2---2--- ---9---12---11---11----9---:
:---2---2----0---4---2--- -----------------12---11---:
:---3---2----0----------- ------------------0----0---:
:-------0---------------- ---8---12---10-------------:

 Bridge
   G#m   Em/G   Am   Cmaj7   B/D#   B      G#m  Em/G  Am  Cmaj7  B/D#  B
:----------------------3------------2--- ---7----7-----8---12-----11---7---:
:---4-----5-----5------5------7-----4--- ---9----8----10---12-----12---7---:
:---4-----4-----5------4------8-----4--- ---8----9-----9---12-----11---8---:
:-----------------------------9--------- ----------------------------------:
:---------------0------3------6-----2--- ----------------------------------:
:---4-----3----------------------------- ----------------------------------:



 Intro:
| N.C. | % | % | % | C |

||: Em | D | C | Em | C :|| 3x



 1st Verse:
||: Em | D | C | Em | C :|| 3x

| Em | D | A |

| C |

" Reckoner
  You can't take it with you
  Dancing for your pleasure "



 2nd Verse:
||: Em | D | C | Em | C :|| 4x

| Em | D | A |

" You are not to blame for
  Bittersweet distracter
  Dare not speak its name
  Dedicated to all hu..., all human beings "



 Bridge:
||: G#m | G#m | Em/G | Em/G |

| Am | Cmaj7 | B/D# | B/D# |

| Cmaj7 | Am | B | B :||

| C |

" Because we separate like ripples on a blank shore
  Because we separate like ripples on a blank shore
  [Choir]: In rainbows "



 3rd Verse:
||: Em | D | C | Em | C :|| 3x

| Em | D | A |

" Reckoner
  Take me with you
  Dedicated to all hu..., all human beings "



 Outro:
 5x this Riff:
|-------------------------|-------------------------|
|-------------------------|-------------------------|
|-7--7------7---7-----x-x-|-7--7------7---7-----x-x-|
|-7--9------7---9-----x-x-|-7--9------7---9-----x-x-|
|---10---------10-----x-x-|---10---------10-----x-x-|
|------0-0--------0-0-x-x-|------0-0--------0-0-x-x-|

|-------------------------|-------------------------|
|-------------------------|-------------------------|
|-9--9--9-9--9----9--9-9--|-9--9--9-9--9---9--9-9-x-|
|-7--9--9-9--7----9--9-9--|-7--9--9-9--7---9--9-9-x-|
|-------------------------|-----------------------x-|
|-8--8--8-8--8----8--8-8--|-8--8--8-8--8---8--8-8-x-|


- 26th /October /08
Just mail me at Maitinin@gmail.com with questions, comments and corrections!
Related for Reckoner tab