Song name
# A B C D E F G H I J K L M N O P Q R S T U V W X Y Z

Raffi - Baby Beluga tab

Tuning: EADGBE (capo 1st Fret)


 Kids love this song and its easy to play.
     C                       G       G7
E|---0---0---0---0---0---0---3---3---1---1---1---1---1---------|
B|---1---1---1---1---1---1---0---0---0---0---0---0---0---------|
G|---0---0---0---0---0---0---0---0---0---0---0---0---0---------|
D|---2---2---2---2---2---2---0---0---0---0---0---0---0---------|
A|---3---3---3---3---3---3---2---2---2---2---2---2---2---------|
E|---------------------------3---3---3---3---3---3---3---------|

     G       C   F               C               D
E|---3---3---0---1---1---1---1---0---0---0---0---3---3---3---3-|
B|---0---0---1---1---1---1---1---1---1---1---1---2---2---2---2-|
G|---0---0---0---2---2---2---2---0---0---0---0---3---3---3---3-|
D|---0---0---2---3---3---3---3---2---2---2---2---0---0---0---0-|
A|---2---2---3---3---3---3---3---3---3---3---3-----------------|
E|---3---3-------1---1---1---1---------------------------------|

     G   G7 G7sus C9
E|---3---1---0---0---------------------------------------------|
B|---0---0---0---3---------------------------------------------|
G|---0---0---0---0---------------------------------------------|
D|---0---0---0---2---------------------------------------------|
A|---2---2---2---3---------------------------------------------|
E|---3---3---3-------------------------------------------------|


Baby beluga in the deep blue sea, swim so wild and you swim so free.
Heaven above and the sea below, and a little white whale on the go.
Baby beluga, baby beluga.
Is the water warm?,is your mama home with you?
So happy.
Way down yawnder where the dolphins play,where you splash and swim all day.
Waves roll in, waves roll out. See the water Squirtin' out your spout.
Baby beluga, oh baby beluga.
Sing your little song, sing for all your friends.
We like to hear you.
When its dark your home and fed, curled up snug in your water bed.
Moon is shining and the stars are out.
Goodnight little whale goodnight.
Baby beluga,oh baby beluga.
With tomarrow's sun, another day has gone.
You'll soon be waking.
Baby beluga in the deep blue sea, swim so wild and you swim so free.
Heaven above and the sea below, and a little white while on the go.
Your just a little white whale on the go.

(go easy 1st tab ever)



    
Tap to rate this tab
# A B C D E F G H I J K L M N O P Q R S T U V W X Y Z