Song name
# A B C D E F G H I J K L M N O P Q R S T U V W X Y Z

Rage Against The Machine - How Could I Just Kill A Man tab

                     Song:how could i just kill a man
                     Tabber: MutatedPig
                     Artist: Rage Against The Machine
                 
                    ~ = vibrato
                    \ = slide down
                    / = slide up
                    h = hammer on
                    p = pull off
                    ^ = bend


Main Riff *play this 6x*
e----------------------------|---------------------------|
B----------------------------|---------------------------|
G----------------------------|---------------------------|
D-------3~-------------------|-------3~-------2----------|
A---3-5-----5-3--4--2-6~-----|---3-5-----5-3---4-2~------|
E-0--------------------------|-0-------------------------|


Chorus
e---------------------------------|
B---------------------------------|play this 4x
G---------------------------------|
D---5---3\4--0--x-x-x-x-x---------|
A---5---3\4--0--x-x-x-x-x---2h4p2-|
E-0---0---------x-x-x-x-x---------|

e---------------------------------|
B---------------------------------|
G---------------------------------|
D---5---3\4--0--x-x-x-x-x---------|
A---5---3\4--0--x-x-x-x-x---------|
E-0---0---------x-x-x-x-x---------|

Main Riff 
e----------------------------|---------------------------|
B----------------------------|---------------------------|play this 3x
G----------------------------|---------------------------|
D-------3~-------------------|-------3~-------2----------|
A---3-5-----5-3--4--2-6~-----|---3-5-----5-3---4-2~------|
E-0--------------------------|-0-------------------------|

e----------------------------|
B----------------------------|
G----------------------------|
D-------3~-------------------|
A---3-5-----5-3--4--2-6~-----|
E-0--------------------------|

Interlude
e-------------------|
B-------------------| play this 4x
G-------------------|
D-5-5-5-5-5---------| 
A-5-5-5-5-5---------|
E-5-5-5-5-5---------|

e----------------------------|
B----------------------------|
G----------------------------|
D-------3~-------------------|
A---3-5-----5-3--4--2-6~-----|
E-0--------------------------|

e-------------------|
B-------------------| 
G-------------------|
D-5-5-5-5-5---------| 
A-5-5-5-5-5---------|
E-5-5-5-5-5---------|

Chorus
e---------------------------------|
B---------------------------------|play this 4x
G---------------------------------|
D---5---3\4--0--x-x-x-x-x---------|
A---5---3\4--0--x-x-x-x-x---2h4p2-|
E-0---0---------x-x-x-x-x---------|

e---------------------------------|
B---------------------------------|
G---------------------------------|
D---5---3\4--0--x-x-x-x-x---------|
A---5---3\4--0--x-x-x-x-x---------|
E-0---0---------x-x-x-x-x---------|

Bridge
e--------------------------------|
B--------------------------------|play this 8x
G--------------------------------|
D-3^4---3^4---3h4----------------|
A--------------------------------|
E--------------------------------|

Interlude
e-------------------|
B-------------------| play this 4x
G-------------------|
D-5-5-5-5-5---------| 
A-5-5-5-5-5---------|
E-5-5-5-5-5---------|

Main Riff 
e----------------------------|---------------------------|
B----------------------------|---------------------------|play this 7x
G----------------------------|---------------------------|
D-------3~-------------------|-------3~-------2----------|
A---3-5-----5-3--4--2-6~-----|---3-5-----5-3---4-2~------|
E-0--------------------------|-0-------------------------|

e----------------------------|
B----------------------------|
G----------------------------|
D-------3~-------------------|
A---3-5-----5-3--4--2-6~-----|
E-0--------------------------|

Outro
e---------------------------------|
B---------------------------------|play this 7x
G---------------------------------|
D---5---3\4--0--x-x-x-x-x---------|
A---5---3\4--0--x-x-x-x-x---2h4p2-|
E-0---0---------x-x-x-x-x---------|

e---------------------------------|
B---------------------------------|
G---------------------------------|
D---5---3\4--0--x-x-x-x-x---------|
A---5---3\4--0--x-x-x-x-x---------|
E-0---0---------x-x-x-x-x---------|

e-------------------|
B-------------------| play this 4x
G-------------------|
D-5-5-5-5-5---------| 
A-5-5-5-5-5---------|
E-5-5-5-5-5---------|

There ya go! plz rate!
Tap to rate this tab
# A B C D E F G H I J K L M N O P Q R S T U V W X Y Z