Song name
# A B C D E F G H I J K L M N O P Q R S T U V W X Y Z

Rage Against The Machine - Microphone Fiend tab

First Song from the album "Renegades".

Guitar: Tom Morello
Tuning: Drop D (DADGBe)
Distortion all time

Intro (Wah-Wah):

e-------------------|           e----------------|
B-------------------|           B----------------| 
G-------------------|   1x      G----------------|   4x
D--4--2--4-4--2--4--|           D--4--2--4-4--2--|
A--4--2--4-4--2--4--|           A--4--2--4-4--2--|
D--4--2--4-4--2--4--|           D--4--2--4-4--2--| 

Verse (Wah-Wah):

"Yo, I was a fiend..."          
1st Guitar                      
                 
e----------------|              
B----------------|             
G----------------|   32x        
D--4--2--4-4--2--|              
A--4--2--4-4--2--|              
D--4--2--4-4--2--|              

During the second part of the verse
"Back to the lab ..."
2nd Guitar

e-------------------------------------------------------------
B-------------------------------------------------------------
G--11-11--x-x-11-11--x-x--9-9-x-x-9-9--x-x--6-6-x-x-6-6--x-x--
D---x--x--x-x--x--x--x-x--x-x-x-x-x-x--x-x--x-x-x-x-x-x--x-x--
A---9--9--x-x--9--9--x-x--7-7-x-x-7-7--x-x--4-4-x-x-4-4--x-x--
D-------------------------------------------------------------

e--------------------|
B--------------------|
G--------------------|   2x
D--4-4-x-x-4-4--x-x--|
A--x-x-x-x-x-x--x-x--|
D--2-2-x-x-2-2--x-x--|

Pre-Chorus:
"Thought of, Cuz its sort..."

e-----------------|
B-----------------|
G-----------------|   
D--7--7--7-7-7-7--|
A--7--7--7-7-7-7--|
D--7--7--7-7-7-7--|

Chorus:
"E-F-F-E-C-T.."

e-----------------------------------|
B-----------------------------------|
G-----------------------------------|   4x   
D--4----x-x-x-x--2h4-x-7-----2-4-2--|
A--4----x-x-x-x--2h4-x-7-7-9-2-4-2--|
D--4----x-x-x-x--2h4-x-7-----2-4-2--|


2nd verse and chorus have same tabs.

After 2nd chorus:

e---------------------------------------|
B---------------------------------------|
G---------------------------------------|   4x   
D--2h4-x-7--2h4-x-7--2h4-x-7-----2-4-2--|
A--2h4-x-7--2h4-x-7--2h4-x-7-7-9-2-4-2--|
D--2h4-x-7--2h4-x-7--2h4-x-7-----2-4-2--|

Break

e---------------------------|
B---------------------------|
G---------------------------|   4x   
D---------------------------|
A---------------------------|
D--/4-x-x--x-2h3h4-x-x-x-x--|

e---------------------------|
B---------------------------|
G---------------------------|   4x   
D--/4-x-x--x-2h3h4-x-x-x-x--|
A--/4-x-x--x-2h3h4-x-x-x-x--|
D--/4-x-x--x-2h3h4-x-x-x-x--|

"Music orientated so when hip-hop was originated ...":

e---------------------------|
B---------------------------|
G---------------------------|   16x   
D---------------------------|
A---------------------------|
D--/4-x-x--x-2h3h4-x-x-x-x--|

e---------------------------|
B---------------------------|
G---------------------------|   8x   
D--/4-x-x--x-2h3h4-x-x-x-x--|
A--/4-x-x--x-2h3h4-x-x-x-x--|
D--/4-x-x--x-2h3h4-x-x-x-x--|

Chorus:
"E-F-F-E-C-T.."

e-----------------------------------|
B-----------------------------------|
G-----------------------------------|   4x   
D--4----x-x-x-x--2h4-x-7-----2-4-2--|
A--4----x-x-x-x--2h4-x-7-7-9-2-4-2--|
D--4----x-x-x-x--2h4-x-7-----2-4-2--|

e---------------------------------------|
B---------------------------------------|
G---------------------------------------|   4x   
D--2h4-x-7--2h4-x-7--2h4-x-7-----2-4-2--|
A--2h4-x-7--2h4-x-7--2h4-x-7-7-9-2-4-2--|
D--2h4-x-7--2h4-x-7--2h4-x-7-----2-4-2--|

Please rate the tab!
Zach182



            
Tap to rate this tab
# A B C D E F G H I J K L M N O P Q R S T U V W X Y Z