Song name
# A B C D E F G H I J K L M N O P Q R S T U V W X Y Z

Rah Rah - Prairie Girl chords

Highlighted       Show chord diagrams
These are the chords to Erin Passmore's guitar on the studio version of this song.

[Info]
Key of C
Standard Tuning
Capo on 5th

[Chords]
G  - 320003
Em - 022000
C  - 032010
Am - 002210
D  - xx0232

[Verse 1]
G
I am a darling I am dear, I'll
Em                   G
cut your neck if you get too near
C        Am           Em
when the chips start falling
               G
I'll stay here

[Verse 2]
G
I am a prairie girl straight to the bone, I'll
Em                   G
cut you off on the drive back home
C Am     Em            G
spend my winters alone
                 C  Am Em                  G
yeah there's just no place quite like home

[Chorus]
C             D
I'll catch a ride
      Em               C
from another friend inside
        C                    D
And I'm sure that you'll be fine for the rest of the night

e--------------------|
B-0-0-0-0-0-0h1--0---|
G-0-0-0-0-0-0----0---| x2
D-0-0-0-0-0-0----0---|
A-2-2-2-2-2-2----2---|
E-3-3-3-3-3-3----3---|

[Verse 3]
G
You were a farm boy just shooting at marks
Em               G
moved to the city on a lark
        C    Am        Em
I can't tell if you're really dumb
                G
or really smart
                C  Am Em
yeah you're just much happier
            G
in the dark

[2nd Chorus]
C             D
I'll catch a ride
      Em               C
from another friend inside
        C                    D
And I'm sure that you'll be fine for the rest of the night

e--------------------|--------------------|--------------------|--------------------|
B-0-0-0-0-0-0h1--0---|-0-0-0-0-0-0h1--0---|-0-0-0-0-0-0h1--0---|-0-0-0-0-0-0h1--0---|
G-0-0-0-0-0-0----0---|-0-0-0-0-0-0----0---|-0-0-0-0-0-0----0---|-0-0-0-0-0-0----0---|
D-0-0-0-0-0-0----0---|-0-0-0-0-0-0----0---|-2-2-2-2-2-2----2---|-0-0-0-0-0-0----0---|
A-2-2-2-2-2-2----2---|-2-2-2-2-2-2----2---|-3-3-3-3-3-3----3---|-2-2-2-2-2-2----2---|
E-3-3-3-3-3-3----3---|-3-3-3-3-3-3----3---|--------------------|-3-3-3-3-3-3----3---|

C Am G

[Verse 4]
G
She was yours as soon as you left me
Em                  G
I doused my life in water and whiskey
C  Am    Em            G
no place I'd rather be
          C Am Em    G
than this lonesome prairie

[Last Chorus and Outro]
C             D
I'll catch a ride
      Em               C
from another friend inside
        C                    D                       Em Am
And I'm sure that you'll be fine for the rest of the night
C               D
You'll catch a lift
     Em            C
from some random chick
    C                  D                         G
and oh you'll get your low when my heart lets go
                     G
when my heart lets go
Tap to rate this tab
 
# A B C D E F G H I J K L M N O P Q R S T U V W X Y Z