Song name
# A B C D E F G H I J K L M N O P Q R S T U V W X Y Z

Rahsaan Patterson - Where You Are tab

Artist: Rahsaan Patterson
Title: Where You Are

Tabbed by ..::Kienan Gorogo::..

Whats up ppls...this is my first tab so be nice aee……couldn find this song anywhere so I 
to tab it for all you Rahsaan Patterson fans out there. ;)

The picking system I got with the chords is my own but if its too hard to follow them 
jus try come up with yr own way of strumming. The chords are above the tabs.

Chords used in song:             Chords used in bridge:
     (EBGDAe)
A    (002220)                    A     (577655)
Em   (022000)                    C#m   (046654)
D    (X00232)                    Bm    (024432)
G    (320033)                    Bm7   (797777)
C/A  (X0555X)
Bb/A (X0333X)

(Standard Tuning)
(intro)
    A                           Em  D
e|-------------------0-----------0--2-(0)---------|
B|-----2-----2---2---2-----------0--3--0----------|
G|-----2-----2---2---2-----------0--2--0----------|         (X4)
D|-----2-----2---2---2-----------2--0--0----------|
A|--0------0-----0------------0--2----(0)---------|
E|------------------------------------------------|


(verse 1)
    A                            Em D
e|-------------------0-----------0--2-(0)---------|
B|-----2-----2---2---2-----------0--3--0----------|
G|-----2-----2---2---2-----------0--2--0----------|         (X3)
D|-----2-----2---2---2-----------2--0--0----------|
A|--0------0-----0------------0--2----(0)---------|
E|------------------------------------------------|

    A                            Em
e|-------------------0-----------0---------------|
B|-----2-----2---2---2-----------0--0------------|
G|-----2-----2---2---2-----------0--0------------|          (X1)
D|-----2-----2---2---2-----------2--0------------|
A|--0--------0---0------------0--2--0------------|
E|-----------------------------------------------|


(pre-verse 1)
    C            D             G             C
e|-----------------2-2--2-2-------3---3---------0-------|
B|-----1----1------3-3--3-3-------3---3-------111-------|
G|-----0----0------2-2--2-2-------0---0-------000-------|
D|-----2----2----0-0-0--0-0----0-----0--------22--------|
A|--3------3-------------------2-----2------03----------|
E|-----------------------------3-----3------------------|

    C       Em    D            A     C/A - Bb/A - A
e|----0-0---0-----22-2-2----------------------|
B|----1-1---0-0---33-3-3----------2—-532------|
G|----0-0---0-0---22-2-2----------2--532------|
D|----2-2---2-2---00-0-0----------2--532------|
A|--0-3-----2-2----------------0-----000------|
E|--------------------------------------------|


(chorus)
    A                           Em  D
e|-------------------0-----------0--2---------|
B|-----2-----2---2---2-----------0--3---------|
G|-----2-----2---2---2-----------0--2---------|        (X2)
D|-----2-----2---2---2-----------2--0---------|
A|--0------0-----0------------0--2------------|
E|--------------------------------------------|

    C          D               A    C/A - Bb/A - A
e|---------------2-2-222--------------------|
B|-----3---3-----3-3-333----------2-532-----|
G|-----0---0-----2-2-222----------2-532-----|		(chorus X2)
D|-----1---1---0---0-000----------2-532-----|
A|--3-----3--------------------0----000-----|
E|------------------------------------------|


(verse 2)
    A                           Em  D
e|-------------------0-----------0--2-(0)---------|
B|-----2-----2---2---2-----------0--3--0----------|
G|-----2-----2---2---2-----------0--2--0----------|         (X3)
D|-----2-----2---2---2-----------2--0--0----------|
A|--0------0-----0------------0--2----(0)---------|
E|------------------------------------------------|

    A                           Em
e|-------------------0-----------0---------------|
B|-----2-----2---2---2-----------0--0------------|
G|-----2-----2---2---2-----------0--0------------|          (X1)
D|-----2-----2---2---2-----------2--0------------|
A|--0------0-----0------------0--2--0------------|
E|-----------------------------------------------|


(pre-verse 2)
    C            D              G               C
e|-----------------2-2--2-2-----3-33333------------0-------|
B|-----1----1------3-3--3-3-----3-33333----------111-------|
G|-----0----0------2-2--2-2-----0-00000----------000-------|
D|-----2----2----0-0-0--0-0-----0-00000----------22--------|
A|--3------3--------------------2-22222--------03----------|
E|------------------------------3-33333--------------------|

    C      Em     D            A     C/A - Bb/A - A
e|----0-0---0-----22-2-2----------------------|
B|----1-1---0-0---33-3-3----------2—-532------|
G|----0-0---0-0---22-2-2----------2--532------|
D|----2-2---2-2---00-0-0----------2--532------|
A|--0-3-----2-2----------------0-----000------|
E|--------------------------------------------|


(back to chorus)

(bridge) (remember bridge chords)
      A
I've got to get to
C#m
Ooh I've gotta
Bm               Bm7
Get to where you are
       A
I've gotta get to
C#m                            Bm
I've gotta gotta get where you are
          Bm7
Where you are
Oh

(space before chorus)

    A                            Em D         A   C/A - Bb/A - A
e|-------------------0-----------0--2-(0)---------------|
B|-----2-----2---2---2-----------0--3--0------2---532---|
G|-----2-----2---2---2-----------0--2--0------2---532---|
D|-----2-----2---2---2-----------2--0--0------2---532---|
A|--0------0-----0------------0--2----(0)-----0---000---|
E|------------------------------------------------------|

(back to chorus)
~END~

Hopefully someone else can come up with some other (better) tabs/chords for this...(hint hint)

Any questions or comments just e-mail me – kgoro1@hotmail.com

Peace!!!
Tap to rate this tab
 
# A B C D E F G H I J K L M N O P Q R S T U V W X Y Z