Raiko - Alive tab

Naruto Ending 4 Alive by Raiko

This tab doesn't belong to me,found it years ago,forgot where it came from but it is correct ^_^

so, this is always the part where he is singing smoothly!

e|----------------------------------------------------------------------------|
B|----------------------------------------------------------------------------|
G|-----4--------------------------------------4---------------------------4---|
D|---4---4------4--------6--------2---------4---4------4----------------4---4-|
A|-2----------4---4----6---6----2---2-----2----------4---4-----2---4--2-------|
E|----------2--------4--------0--------------------2---------0---2------------|


and this is the solo! just gotta play it twice everytime

e|------------------------7-7h9-7-9-9/11--9-7-9-7-------------------------|
B|--------------------7-9-------------------------9-7-9-------------------|
G|--6h8-6---6-----6-8-----------------------------------6-8---------------|
D|--------9-----9-------------------------------------------9-------------|
A|------------------------------------------------------------------------|
E|------------------------------------------------------------------------|


if you have the same version as I do, you'll notice something diferent 
at 1 minute and seconds! here's what it is! ;)

e|---------------------------------------------------------------------------|
B|---------------------------------------------------------------------------|
G|-----4--------------------------------------4-----------------------4------|
D|---4---4------4--------6--------2---------4---4------4------------4---4----|
A|-2----------4---4----6---6----2---2-----2----------4---4---7-6-4-2---------|
E|----------2--------4--------0--------------------2-------------------------|


then you have the riff part! the easiest one ^.^ it's almost the same as basket case 
green day =p here's how it goes

e|---------------------------------------------------------------------------|
B|---------------------------------------------------------------------------|
G|--4-4-4-4--------------------------4-4-4-4-----------------4-4-4-4---------|
D|--4-4-4-4-4-4-4-4-6-6-6-6-2-2-2-2--4-4-4-4-4-4-4-4-2-2-4-4-4-4-4-4---------|
A|--2-2-2-2-4-4-4-4-6-6-6-6-2-2-2-2--2-2-2-2-4-4-4-4-2-2-4-4-2-2-2-2---------|
E|----------2-2-2-2-4-4-4-4-0-0-0-0----------2-2-2-2-0-0-2-2-----------------|
Tap to rate this tab
 
# A B C D E F G H I J K L M N O P Q R S T U V W X Y Z