Song name
# A B C D E F G H I J K L M N O P Q R S T U V W X Y Z

Raiko - Alive tab

			                                     Alive - Raiko

Tabbed by: raiyan000
Email    : raiyan_ard@yahoo.com



Intro
e|---------------------------|----------------------------|
B|---------------------------|----------------------------|
G|-------4-------------------|----------------------------|
D|-----4---4--------4--------|-------6-----------2--------|
A|---2------------4---4------|-----6---6-------2---2------|
E|--------------2------------|---4-----------0------------|


e|---------------------------|----------------------------|
B|---------------------------|----------------------------|
G|-------4-------------------|-----------------4----------|
D|-----4---4--------4--------|---------------4---4--------|
A|---2------------4---4------|-----2----2-2---------------|
E|--------------2------------|---0---2--------------------|


Solo
e|---------------------------7-9~---7-9-11---9-7-9~---7-------------------|
B|-----------------------7-9----------------------------9-7-9-------------|
G|---4s8---6-4-6-6-4-6-8--------------------------------------6-8--4------|
D|------------------------------------------------------------------------|
A|------------------------------------------------------------------------|
E|------------------------------------------------------------------------|




That's all, this tab 97%...
Thanks
Tap to rate this tab
 
# A B C D E F G H I J K L M N O P Q R S T U V W X Y Z