Song name
# A B C D E F G H I J K L M N O P Q R S T U V W X Y Z

Raine Maida - Earthless tab

Author/Artist: Raine Maida
Title: Earthless
Album: The Hunter's Lullaby
Transcribed by: quikclik2 (quikclik2@netzero.com)
-------2-----3-----0---------------------------------|------------------------|
-----0---0-----0-----0---0-------1-----0-----3-------|------------------------|
---0-------0-----0-----0-------0---0-----0-----0-----|------------------------|
-----------------------------0-------0-----0---------|------------------------|
-----------------------------------------------------|------------------------|
-0-------------------------3---------------------3-2-|------------------------|
 Intro/Verse

------------------------------------------------------------------------------|
-------1-----1-----1-------------1-----1-----1----------1-----0-----3---------|
-----0---0-----0-----0---0-----2---2-----2-----2------0---0-----0-----0-------|
---2-------2-----2-----2-----2-------2-----2----2---0-------0-----0-----------|
-3-------------------------0--------------------------------------------------|
--------------------------------------------------3---------------------3-2---|
 Chorus

-------------------------------2-----2----------------------------------------|
-------1-----1-----1---0-----0---0--------------------------------------------|
-----0---0-----0-----0-----0-------0------------------------------------------|
---2-------2-----2-------0----------------------------------------------------|
-3----------------------------------------------------------------------------|
------------------------------------------------------------------------------|
 Pre Breakdown Fill
Tap to rate this tab
# A B C D E F G H I J K L M N O P Q R S T U V W X Y Z