Song name
# A B C D E F G H I J K L M N O P Q R S T U V W X Y Z

Raised Fist - Running Man tab

-----------------------------------------------------------------------------
			     RUNNING MAN - RAISED FIST
-----------------------------------------------------------------------------
Tabbed by: Blind
Email: Palanuik@hotmail.com

Tuning: Standard EADGBe

Intro(x1)
e|---------------------------------------------------------------------------
B|---------------------------------------------------------------------------
G|---------------------------------------------------------------------------
D|---------------------------------------------------------------------------
A|22------22------22------222R2-232-232-23-----------------------------------
E|22------22------22------222R2-232-232-23-----------------------------------

Verse(x1)
e|---------------------------------------------------------------------------
B|---------------------------------------------------------------------------
G|---------------------------------------------------------------------------
D|---------------------------------------------------------------------------
A|2-2-2-3--2-2-3-5--2-2-2-3--2-2-3-5-----------------------------------------
E|2-2-2-3--2-2-3-5--2-2-2-3--2-2-3-5-----------------------------------------

Prechorus(x1)
e|---------------------------------------------------------------------------
B|---------------------------------------------------------------------------
G|---------------------------------------------------------------------------
D|---------------------------------------------------------------------------
A|2-32-2-3-0-2--2-32-2-3-0-2-------------------------------------------------
E|2-32-2-3-0-2--2-32-2-3-0-2-------------------------------------------------

Chorus(x2)
e|---------------------------------------------------------------------------
B|---------------------------------------------------------------------------
G|---------------------------------------------------------------------------
D|---------------------------------------------------------------------------
A|22-0-22-0-22-3--22-0-22-0-3202-0-------------------------------------------
E|22-0-22-0-22-3--22-0-22-0-3202-0-------------------------------------------

Bridge(x1)
e|---------------------------------------------------------------------------
B|---------------------------------------------------------------------------
G|---------------------------------------------------------------------------
D|9R-12R-7R--9R-12R-7R--9R-12R-7R--9R-12R-7R---------------------------------
A|7R-10R-5R--7R-10R-5R--7R-10R-5R--7R-10R-5R---------------------------------
E|---------------------------------------------------------------------------

Outro(x2)
e|------------------------------------------------------------------------|-
B|------------------------------------------------------------------------|-
G|------------------------------------------------------------------------|-
D|------------------------------------------------------------------------|-
A|222222--222222--222222--5555\0000---222222/5555\0000--222222/5555\0000--|2
E|222222--222222--222222--5555\0000---222222/5555\0000--222222/5555\0000--|2
  FFFFFF  FFFFFF  FFFFFF                                                  

ORDER:
Intro(x1)
Verse(x1)
Prechorus(x1)
Chorus(x2)
Verse(x1)
Prechorus(x1)
Chorus(x2)
Bridge(x1)
Outro(x2)

| F  fast picking
| R  let ring
| /  slide up
| \  slide down
| h  hammer-on
| p  pull-off
| ~  vibrato
| +  harmonic
| x  Mute note
=============================================================================
Tap to rate this tab
# A B C D E F G H I J K L M N O P Q R S T U V W X Y Z