Guitaretab - guitar tabs
Song name
# A B C D E F G H I J K L M N O P Q R S T U V W X Y Z

Ram Jam - Black Betty tab

#----------------------------------PLEASE NOTE---------------------------------#
#This file is the author's own work and represents their interpretation of the #
#song. You may only use this file for private study, scholarship, or research. #
#------------------------------------------------------------------------------##

                                   BLACK BETTY
                             As recorded by Ram Jam
                          (From the 1977 Album RAM JAM)

Words and Music by Huddie Ledbetter
Arranged by Ram Jam

          A5                   B5                   D5                    D
      5 7 7 x x x          7 9 9 x x x          x 5 7 7 x x          x 5 7 7 7 5

           E                   E5                    B                   Bm7
      x 7 9 9 9 7          x 7 9 9 x x          7 9 9 8 7 7          7 9 7 7 7 7

          G5                    A                   Bb
     x 10 12 x x x         5 7 7 6 5 5          6 8 8 7 6 6

Gtr I (E A D G B E) - 'Rhythm'
Gtr II (E A D G B E) - 'Lead'

 Main Riff
  Q=120
  N.C.                 A5  B5          A5  B5  D5                      A5
 4/4
  Gtr I
  W          H..       E   Q   Q  Q.   E   S S E +H.        +H..       E
|----------|-------------|---------------|----------------|---------------|
|----------|-------------|---------------|----------------|---------------|
|----------|-------------|---------------|-----7-(7)------|-(7)-----------|
|----------|-----------7S|=9\----------7S|=x-x-7-(7)------|-(7)--------7s=|
|----------|-----------7S|=9\----------7S|=x-x-5-(5)------|-(5)--------7s=|
|----------|-----------5S|=7\----------5S|=x-x------------|------------5s=|


  B5      D   E   D A5  B5       D     E     D A5
  Gtr II
  W                      E E S S S S E   E   E E
|---------------------|--------------------------|
|---------------------|--------------------------|
|---------------------|--------------------------|
|---------------------|----7-7-7---7-------------|
|---------------------|-/9-------9---9S==7---5---|
|---------------------|------------------------7-|
|
| Gtr I
| E E S S E S E S E E    E E S S E   S E   S E E
|---------------------|--------------------------|
|---------7-x-9-x-7---|----------7---x-9---x-7---|
|---------7-x-9-x-7---|----------7---x-9---x-7---|
|-9-9-x-x-7-x-9-x-7-7s|==9-9-x-x-7---x-9---x-7-7s|
|-9-9-x-x-5-x-7-x-5-7s|==9-9-x-x-5---x-7---x-5-7s|
|-7-7-x-x-----------5s|==7-7-x-x---------------5s|


  B5          D                A5
  S S S S Q       E    S  S  Q
|---------------------------------|
|---------------------------------|
|---------------/11---14p11-14----|
|-7h9-9-9-9-----------------------|
|---------------------------------|
|---------------------------------|
|
| E   E   S S E   S E     S  E E
|---------------------------------|
|-------------7---x-7-----x--7----|
|-------------7---x-7-----x--7----|
|-9---9---x-x-7---x-7-----x--7-7--|
|-9---9---x-x-5---x-5-----x--5-7--|
|-7---7---x-x------------------5--|


  B5           D             E       D   A5    B5                  E5
    E  E  S  S  S  a  S  +S   S  E   S S S S   E    +H..
|--------14-13-12-10h11-(11)-----------------|------------------------|
|-----12---------------------12--------------|------------------------|
|-/13---------------------------14s==9p7h9p7-|-9b11-(9)---------------|
|--------------------------------------------|------------------------|
|--------------------------------------------|------------------------|
|--------------------------------------------|------------------------|
|
|   E  E  S  S  E         S   E    S E   E     E     E   E E E E S E.
|--------------------------------------------|------------------------|
|---------------7---------x---9----x-7-------|------------------------|
|---------------7---------x---9----x-7-------|---------------------9--|
|---9--9--x--x--7---------x---9----x-7---7---|-x-----9---x-9-x-9-x-9--|
|---9--9--x--x--5---------x---7----x-5---7---|-x-----9---x-9-x-9-x-7--|
|---7--7--x--x---------------------------5---|-x-----7---x-7-x-7-x----|


  B5                                    D5
  +E  E       E       S E.        E     E    S S
|------------------------------------------------|
|------------------------------------------------|
|-(9)-9pb10.5r9pb10.5rx-9pb10.5r==9pb10r7--------|
|--------------------------------------------9p7-|
|------------------------------------------------|
|------------------------------------------------|
|
|  E  E       E       E         E E     s E.
|------------------------------------------------|
|------------------------------------------------|
|---------------------------------------7-7------|
|--x--9-------x-------9---------x-9-----7-7------|
|--x--9-------x-------9---------x-9-----5-5------|
|--x--7-------x-------7---------x-7--------------|


  B5                    E5        B5              D5
  Q   E     S S S S S S S S S S   S S S S S S S S S S S S S S S S
|-------------------------------|---------------------------------|
|-------------------------------|---------------------------------|
|-----7b7.5-----9---7-----------|---------------------------7-----|
|-9-----------9---9---9-7---9-7-|-----7-------------------7---9-7-|
|-------------------------9-----|-9-7---9S7-5-7-5---5-7S9---------|
|-------------------------------|-----------------7---------------|
|
| E E E     E   E   E   S E   S   Q       E   E   Q       E   E
|-------------------------------|---------------------------------|
|-------------------------------|---------------------------------|
|-----------------------x-9---x-|-----------------7-------x---x---|
|-x-9-x-----9---x---9---x-9---x-|-9-------x---x---7-------x---x---|
|-x-9-x-----9---x---9---x-7---x-|-9-------x---x---5-------x---x---|
|-x-7-x-----7---x---7-----------|-7-------x---x-------------------|


  B5                        B
  W          +W             W           W
|----------|--------------|----------|--------|
|----------|--------------|----------|--------|
|----------|--------------|----------|--------|
|-9--------|-(9)----------|----------|--------|
|----------|--------------|----------|--------|
|----------|--------------|----------|--------|
|
| W          +H.      E E   W          +W
|----------|--------------|-7--------|-(7)----|
|----------|--------------|-7--------|-(7)----|
|----------|--------------|-8--------|-(8)----|
|-9--------|-(9)------9-x-|-9--------|-(9)----|
|-9--------|-(9)------9-x-|-9--------|-(9)----|
|-7--------|-(7)------7-x-|-7--------|-(7)----|


 Verse 1
  Bm7                             Bm7            Bm7
   E  H..         W          Q.    E H      Q.    E H
|---------------|----------|--------------|--------------|
|-15\-----------|----------|------15------|------15------|
|-14\-----------|----------|------14------|------14------|
|---------------|----------|--------------|--------------|
|---------------|----------|--------------|--------------|
|---------------|----------|--------------|--------------|
|
|  E  H..         W          Q.    E H      Q.    E H
|---------------|----------|--------------|--------------|
|---------------|----------|--------------|--------------|
|---------------|----------|--------------|--------------|
|--9\-----------|----------|-------9------|-------9------|
|--9\-----------|----------|-------9------|-------9------|
|--7\-----------|----------|-------7------|-------7------|


       Bm7            Bm7            Bm7            Bm7     A5
  Q.    E H      Q.    E H      Q.    E H      Q.    E H
|--------------|--------------|--------------|------------------|
|------15------|------15------|------15------|------15----------|
|------14------|------14------|------14------|------14----------|
|--------------|--------------|--------------|------------------|
|--------------|--------------|--------------|------------------|
|--------------|--------------|--------------|------------------|
|
| Q.    E H      Q.    E H      Q.    E H      Q.    E Q.   E
|--------------|--------------|--------------|------------------|
|--------------|--------------|--------------|------------------|
|--------------|--------------|--------------|------------------|
|-------9------|-------9------|-------9------|-------9------7S==|
|-------9------|-------9------|-------9------|-------9------7S==|
|-------7------|-------7------|-------7------|-------7------5S==|


 Main Riff
  B5          A5  B5  D5                      A5  B5      D   E   D A5
  Gtr I
  Q   Q  Q.   E   S S E +H.        +H..       E   E E S S E S E S E E
|---------------|----------------|--------------|----------------------|
|---------------|----------------|--------------|---------7-x-9-x-7----|
|---------------|-----7-(7)------|-(7)----------|---------7-x-9-x-7----|
|-9\----------7S|=x-x-7-(7)------|-(7)--------7s|=9-9-x-x-7-x-9-x-7-7s=|
|-9\----------7S|=x-x-5-(5)------|-(5)--------7s|=9-9-x-x-5-x-7-x-5-7s=|
|-7\----------5S|=x-x------------|------------5s|=7-7-x-x-----------5s=|


  B5       D     E     D A5  B5          D                A5
  Gtr II
   E E S S S S E   E   E E   S S S S Q       E    S  S  Q
|--------------------------|--------------------------------|
|--------------------------|--------------------------------|
|--------------------------|---------------/11---14p11-14---|
|----7-7-7---7-------------|-7h9-9-9-9----------------------|
|-/9-------9---9S==7---5---|--------------------------------|
|------------------------7-|--------------------------------|
|
| Gtr I
|  E E S S E   S E   S E E   E   E   S S E   S E     S  E E
|--------------------------|--------------------------------|
|----------7---x-9---x-7---|-------------7---x-7-----x--7---|
|----------7---x-9---x-7---|-------------7---x-7-----x--7---|
|--9-9-x-x-7---x-9---x-7-7s|=9---9---x-x-7---x-7-----x--7-7s|
|--9-9-x-x-5---x-7---x-5-7s|=9---9---x-x-5---x-5-----x--5-7s|
|--7-7-x-x---------------5s|=7---7---x-x------------------5s|


  B5           D             E       D   A5
    E  E  S  S  S  a  S  +S   S  E   S S S S
|--------14-13-12-10-11-(11)------------------|
|-----12---------------------12---------------|
|-/13---------------------------14s==9-7-9-7--|
|---------------------------------------------|
|---------------------------------------------|
|---------------------------------------------|
|
|   E  E  S  S  E         S   E    S E   E
|---------------------------------------------|
|---------------7---------x---9----x-7--------|
|---------------7---------x---9----x-7--------|
|---9--9--x--x--7---------x---9----x-7---7----|
|---9--9--x--x--5---------x---7----x-5---7----|
|---7--7--x--x---------------------------5----|


  B5                  E5   B5                                    D5
  E    +H..                +E  E       E       S E.        E     E    S S
|------------------------|------------------------------------------------|
|------------------------|------------------------------------------------|
|-9b11-(9)---------------|-(9)-9pb10.5r9pb10.5rx-9pb10.5r==9pb10r7--------|
|------------------------|--------------------------------------------9p7-|
|------------------------|------------------------------------------------|
|------------------------|------------------------------------------------|
|
| E     E   E E E E S E.    E  E       E       E         E E     s E.
|------------------------|------------------------------------------------|
|------------------------|------------------------------------------------|
|---------------------9--|---------------------------------------7-7------|
|-x-----9---x-9-x-9-x-9--|--x--9-------x-------9---------x-9-----7-7------|
|-x-----9---x-9-x-9-x-7--|--x--9-------x-------9---------x-9-----5-5------|
|-x-----7---x-7-x-7-x----|--x--7-------x-------7---------x-7--------------|


  B5                    E5
  Q   E     S S S S S S S S S S
|-------------------------------|
|-------------------------------|
|-----7b7.5-----9---7-----------|
|-9-----------9---9---9-7---9-7-|
|-------------------------9-----|
|-------------------------------|
|
| E E E     E   E   E   S E   S
|-------------------------------|
|-------------------------------|
|-----------------------x-9---x-|
|-x-9-x-----9---x---9---x-9---x-|
|-x-9-x-----9---x---9---x-7---x-|
|-x-7-x-----7---x---7-----------|


  B5              D5                B
  S S S S S S S S S S S S S S S S   H.      Q
|---------------------------------|------------|
|---------------------------------|------------|
|---------------------------7-----|------------|
|-----7-------------------7---9-7-|-9----------|
|-9-7---9S7-5-7-5---5-7S9---------|------------|
|-----------------7---------------|------------|
|
| Q       E   E   Q       E   E     H.      Q
|---------------------------------|------------|
|---------------------------------|------------|
|-----------------7-------x---x---|-8----------|
|-9-------x---x---7-------x---x---|-9----------|
|-9-------x---x---5-------x---x---|-9----------|
|-7-------x---x-------------------|-7----------|


 Verse 2
  Bm7                             Bm7            Bm7
   E  H..         W          Q.    E H      Q.    E H
|---------------|----------|--------------|--------------|
|-15\-----------|----------|------15------|------15------|
|-14\-----------|----------|------14------|------14------|
|---------------|----------|--------------|--------------|
|---------------|----------|--------------|--------------|
|---------------|----------|--------------|--------------|
|
|  E  H..         W          Q.    E H      Q.    E H
|---------------|----------|--------------|--------------|
|---------------|----------|--------------|--------------|
|---------------|----------|--------------|--------------|
|--9\-----------|----------|-------9------|-------9------|
|--9\-----------|----------|-------9------|-------9------|
|--7\-----------|----------|-------7------|-------7------|


       Bm7            Bm7            Bm7            Bm7
                                              7/8
  Q.    E H      Q.    E H      Q.    E H      Q.    E Q.
|--------------|--------------|--------------|---------------|
|------15------|------15------|------15------|------15-------|
|------14------|------14------|------14------|------14-------|
|--------------|--------------|--------------|---------------|
|--------------|--------------|--------------|---------------|
|--------------|--------------|--------------|---------------|
|
| Q.    E H      Q.    E H      Q.    E H      Q.    E Q.
|--------------|--------------|--------------|---------------|
|--------------|--------------|--------------|---------------|
|--------------|--------------|--------------|---------------|
|-------9------|-------9------|-------9------|-------9-------|
|-------9------|-------9------|-------9------|-------9-------|
|-------7------|-------7------|-------7------|-------7-------|


 Bridge 1
  D5       E5 D5  B5                       D5       E5 D5  B5
                 5/8                      7/8             5/8           2/4
  e e e E. E. E   E E E S  E.   E +H       e e e E. E. E   E E E S  E.   H
|---------------|-------------|----------|---------------|-------------|------|
|---------------|-------------|----------|---------------|-------------|------|
|-7-7-7-7--9--7-|-------------|----------|-7-7-7-7--9--7-|----------7--|------|
|-7-7-7-7--9--7-|-----7-9-----|----------|-7-7-7-7--9--7-|-----7-9-----|-9----|
|---------------|-7-9---------|----------|---------------|-7-9---------|------|
|---------------|---------10--|-7-(7)----|---------------|-------------|------|
|
| e e e E. E. E   E E E S  E.   E +H       e e e E. E. E   E E E S  E.   H
|---------------|-------------|----------|---------------|-------------|------|
|---------------|-------------|----------|---------------|-------------|------|
|-7-7-7-7--9--7-|-------------|----------|-7-7-7-7--9--7-|-------------|------|
|-7-7-7-7--9--7-|-----7-9-----|----------|-7-7-7-7--9--7-|-----7-9-----|------|
|-5-5-5-5--7--5-|-7-9---------|----------|-5-5-5-5--7--5-|-7-9---------|------|
|---------------|---------10--|-7-(7)----|---------------|---------10--|-7----|


  D5                          (D5)     E5 D5
 4/4
  E  H..         W          E e e e E. E. E
|--------------|----------|-----------------|
|--------------|----------|-----------------|
|-7\-----------|----------|---7-7-7-7--9--7-|
|-7\-----------|----------|---7-7-7-7--9--7-|
|--------------|----------|-----------------|
|--------------|----------|-----------------|
|
| E  H..         W          E e e e E. E. E
|--------------|----------|-----------------|
|--------------|----------|-----------------|
|--------------|----------|---7-7-7-7--9--7-|
|-7\-----------|----------|---7-7-7-7--9--7-|
|-5\-----------|----------|---5-5-5-5--7--5-|
|--------------|----------|-----------------|


  B5                      D5
 5/8              2/4    4/4            5/4
  E E E S  T T E   H      E  H..         W
|----------------|------|--------------|------|
|----------------|------|--------------|------|
|----------7h9p7-|------|-7\-----------|------|
|-----7-9--------|-9----|-7\-----------|------|
|-7-9------------|------|--------------|------|
|----------------|------|--------------|------|
|
| E E E S  E.      H      E  H..         W
|----------------|------|--------------|------|
|----------------|------|--------------|------|
|----------------|------|--------------|------|
|-----7-9--------|------|-7\-----------|------|
|-7-9------------|------|-5\-----------|------|
|---------10-----|-7----|--------------|------|


  (D5)     E5 D5  B5
 7/8             5/8           2/4
  e e e E. E. E   E E S E  E.   H
|---------------|-------------|------|
|---------------|-------------|------|
|-7-7-7-7--9--7-|-------------|------|
|-7-7-7-7--9--7-|-----7-9-----|------|
|---------------|-7-9---------|------|
|---------------|---------10--|-7----|
|
| e e e E. E. E   E E S E  E.   H
|---------------|-------------|------|
|---------------|-------------|------|
|-7-7-7-7--9--7-|-------------|------|
|-7-7-7-7--9--7-|-----7-9-----|------|
|-5-5-5-5--7--5-|-7-9---------|------|
|---------------|---------10--|-7----|


  B5
  S S S S S S E   S S S S S S E   S S S S S S E
|---------------|---------------|---------------|
|---------------|---------------|-------7h9p7---|
|---------------|-------7h9p7---|-7h8h9-------9-|
|-------7h9p7---|-7h8h9-------9-|---------------|
|-7h8h9-------9-|---------------|---------------|
|---------------|---------------|---------------|
|
| S S S S S S E   S S S S S S E   S S S S S S E
|---------------|---------------|---------------|
|---------------|---------------|---------------|
|---------------|---------------|-------7h9p7---|
|---------------|-------7h9p7---|-7h8h9-------9-|
|-------5h7p5---|-7h8h9-------9-|---------------|
|-5h6h7-------7-|---------------|---------------|


 3/4                          2/4
  S S S S S  S S  S  S  S  E    E  E  E  E
|-----------------------9h10-|-11-11-12-13--|
|-7h8h9-8h9h10-9h10h11-------|--------------|
|----------------------------|--------------|
|----------------------------|--------------|
|----------------------------|--------------|
|----------------------------|--------------|
|
| S S S S S  S S  S  S  S  E    E  E  E  E
|----------------------------|--------------|
|----------------------10h11-|-12-12-13-14--|
|-7h8h9-8h9h10-9h10h11-------|--------------|
|----------------------------|--------------|
|----------------------------|--------------|
|----------------------------|--------------|


 Guitar Solo
  D
 4/4
   E  S  S  E  S  S  S  S  S  S  E  S  S    S  S  S  S  E  S  S  S  S  S  S  E  S  S
|-14-14-14-14-14-14-15p14-14-14-14-14-14-|-12h14-14-14-14-14-14-15-14-14-14-14-14-14-|
|----------------------------------------|-------------------------------------------|
|----------------------------------------|-------------------------------------------|
|----------------------------------------|-------------------------------------------|
|----------------------------------------|-------------------------------------------|
|----------------------------------------|-------------------------------------------|
|
|  ~~~~~~~~~~~~~~~~~~~~~~~~~~~~~~~~~~~~~~~~~~~~~~~~~~~~~~~~~~~~~~~~
|  Q        Q        Q           Q          Q           Q        H
|----------------------------------------|-------------------------------------------|
|-15-------15-------15----------15-------|-15----------15-------15-------------------|
|----------------------------------------|-------------------------------------------|
|----------------------------------------|-------------------------------------------|
|----------------------------------------|-------------------------------------------|
|----------------------------------------|-------------------------------------------|


  G5
   E    E    E    E    S  S  e    Q
|-15---15---15---15---15----12-------------|
|------------------------15------15--------|
|------------------------------------------|
|------------------------------------------|
|------------------------------------------|
|------------------------------------------|
|
|  S S  S S  S S  S S  S  S  S S  S S  S S
|------------------------------------------|
|------------------------------------------|
|------------------------------------------|
|-12-x-14-x-12-x-14-x-12--x-14-x-12-x-14-x-|
|-10-x-10-x-10-x-10-x-10--x-10-x-10-x-10-x-|
|------------------------------------------|


  D5                                              B5
   E    S  S  E    S  S  E    S  S  S E.          +Q         S  S  S S     +S  S  E   E    S  S
|-----------------------------------------------|------------7----------------------------------|
|-15---12-15-12---10-12-10----7-10--7-----------|--------------10p=7----------------------------|
|-------------------------------------9b11------|-(9)----------------9pb10r(9)p7------7----9s11-|
|-----------------------------------------------|---------------------------------9-------------|
|-----------------------------------------------|-----------------------------------------------|
|-----------------------------------------------|-----------------------------------------------|
|
|  S S  S  S  S S  S  S  S S  S  S  S S     S S    S  S  S S S  S  S S      S  S  S S S S  S  S
|-----------------------------------------------|-----------------------------------------------|
|-----------------------------------------------|-----------------------------------------------|
|-----------------------------------------------|-----------------------------------------------|
|-----------------------------------------------|-----------------------------------------------|
|-12-x-14--x-12-x-14--x-12-x-14--x-12-x----14-x-|--9--x-11-x-9--x-11-x------9--x-11-x-9-x-11--x-|
|-10-x-10--x-10-x-10--x-10-x-10--x-10-x----10-x-|--7--x--7-x-7--x--7-x------7--x--7-x-7-x--7--x-|


                                                ~~~
   S  E.         S  E.         S  E.         S  E.
|-------------------------------------------------------|
|-10------------10------------10------------10-12-------|
|----11b14r========11b14r========11b14r=================|
|-------------------------------------------------------|
|-------------------------------------------------------|
|-------------------------------------------------------|
|
|  S  S     S S  S  S     S S  S  S     S S  S  S   S S
|-------------------------------------------------------|
|-------------------------------------------------------|
|-------------------------------------------------------|
|-------------------------------------------------------|
|--9--x----11-x--9--x----11-x--9--x----11-x--9--x--11-x-|
|--7--x-----7-x--7--x-----7-x--7--x-----7-x--7--x---7-x-|


  D5
   E    S  S  S  S  S  S  S  S  E       E       S  S    S  E.       E.       S  S  S  S  S  S  S  S  S
|----------------------------------------------------|----17-------15-------13h14----------------------|
|-12S==15-15-15-14-15-17-15-17-17b19r==17b19r==15h17p|=15-------------------------15p13-------15h17p15-|
|----------------------------------------------------|----------------------------------14S16----------|
|----------------------------------------------------|-------------------------------------------------|
|----------------------------------------------------|-------------------------------------------------|
|----------------------------------------------------|-------------------------------------------------|
|
|  S S  S  S  S  S  S  S  S  S  S    S  S    S  S  S    S  S   S S  S  S  S  S  S  S  S  S  S  S  S  S
|----------------------------------------------------|-------------------------------------------------|
|----------------------------------------------------|-------------------------------------------------|
|----------------------------------------------------|-------------------------------------------------|
|----------------------------------------------------|-------------------------------------------------|
|-12-x-14--x-12--x-14--x-12--x-14----x-12----x-14--x-|-12--x--14-x-12--x-14--x-12--x-14--x-12--x-14--x-|
|-10-x-10--x-10--x-10--x-10--x-10----x-10----x-10--x-|-10--x--10-x-10--x-10--x-10--x-10--x-10--x-10--x-|

[ Tab from: http://www.guitaretab.com/r/ram-jam/15581.html ]
  G5
   E       E       S  S  S  S  E       E       S  S  S  S
|---------------------------------------------------------|
|-17b18---17b18---17p15----15-17b18---17b18---17p15----15-|
|-----------------------16--------------------------16----|
|---------------------------------------------------------|
|---------------------------------------------------------|
|---------------------------------------------------------|
|
|  S    S  S    S  S  S  S  S  S    S  S    S  S  S  S  S
|---------------------------------------------------------|
|---------------------------------------------------------|
|---------------------------------------------------------|
|-12----x-14----x-12--x-14--x-12----x-14----x-12--x-14--x-|
|-10----x-10----x-10--x-10--x-10----x-10----x-10--x-10--x-|
|---------------------------------------------------------|


                                                  B5
   E    S  S  S  S  S  S  S  S  e    E.       S    E.          S    E.          S    E.          S    E.          S
|-17S==15-13h14---------------------------------|-------------17--(17)---------17--(17)---------17--(17)---------17--|
|---------------15p13-------15h17---15-------17-|-17b19------(17)--17b19------(17)--17b19------(17)--17b19------(17)-|
|---------------------14S16---------------------|--------------------------------------------------------------------|
|-----------------------------------------------|--------------------------------------------------------------------|
|-----------------------------------------------|--------------------------------------------------------------------|
|-----------------------------------------------|--------------------------------------------------------------------|
|
|  S S  S  S  S  S  S  S  S  S  S S  S  S  S  S    S    S  S   S    S    S  S   S    S    S  S   S    S    S  S   S
|-----------------------------------------------|--------------------------------------------------------------------|
|-----------------------------------------------|--------------------------------------------------------------------|
|-----------------------------------------------|--------------------------------------------------------------------|
|-----------------------------------------------|--------------------------------------------------------------------|
|-12-x-14--x-12--x-14--x-12--x-14-x-12--x-14--x-|--9----x-11---x----9----x-11---x----9----x-11---x----9----x-11---x--|
|-10-x-10--x-10--x-10--x-10--x-10-x-10--x-10--x-|--7----x--7---x----7----x--7---x----7----x--7---x----7----x--7---x--|


    E.          S    E.          S    E.          S    E.           S
|-(17)---------17--(17)---------17--(17)---------17--(17)----------17--|
|--17b19------(17)--17b19------(17)--17b19------(17)--17b19=======(17)-|
|----------------------------------------------------------------------|
|----------------------------------------------------------------------|
|----------------------------------------------------------------------|
|----------------------------------------------------------------------|
|
|   S    S  S   S    S    S  S   S    S    S  S   S    S     S  S   S
|----------------------------------------------------------------------|
|----------------------------------------------------------------------|
|----------------------------------------------------------------------|
|----------------------------------------------------------------------|
|---9----x-11---x----9----x-11---x----9----x-11---x----9-----x-11---x--|
|---7----x--7---x----7----x--7---x----7----x--7---x----7-----x--7---x--|


  D5
   +E     E    E    S  S  S  S  E    E    S  S       +e     e    e    e    S  S  S  S  E    S  S
|-(17)--------------------------------------17b19-|-(17)---17---16---15---13h14---------------------|
|-(17)r==15---15---15-15h17p15-15---15---15-------|-----------------------------15p13h15----x-17b19-|
|-------------------------------------------------|-------------------------------------------------|
|-------------------------------------------------|-------------------------------------------------|
|-------------------------------------------------|-------------------------------------------------|
|-------------------------------------------------|-------------------------------------------------|
|
|   S  S  S S  S S  S  S  S  S  S S  S S  S  S        S  S  S S  S S  S S  S  S  S  S  S S  S  S
|-------------------------------------------------|-------------------------------------------------|
|-------------------------------------------------|-------------------------------------------------|
|-------------------------------------------------|-------------------------------------------------|
|-------------------------------------------------|-------------------------------------------------|
|--12--x-14-x-12-x-14--x-12--x-14-x-12-x-14--x----|--12--x-14-x-12-x-14-x-12--x-14--x-12-x-14--x----|
|--10--x-10-x-10-x-10--x-10--x-10-x-10-x-10--x----|--10--x-10-x-10-x-10-x-10--x-10--x-10-x-10--x----|


  B5
   +S   S  S      +S   S  S  +S   S  S  S  S      +S   S  S  +S   S
|------17-------------17------------------------------17------------|
|-(17)----17b19==(17)----17r(17)-15----15-17b19==(17)----17r(17)-15-|
|-----------------------------------16------------------------------|
|-------------------------------------------------------------------|
|-------------------------------------------------------------------|
|-------------------------------------------------------------------|
|
|   S   S  S       S   S  S   S   S  S  S  S       S   S  S   S   S
|-------------------------------------------------------------------|
|-------------------------------------------------------------------|
|-------------------------------------------------------------------|
|-------------------------------------------------------------------|
|---9---x-11-------x---9--x--11---x--9--x-11-------x---9--x--11---x-|
|---7---x--7-------x---7--x---7---x--7--x--7-------x---7--x---7---x-|


                                                           D5
   S  S  S      +S   S  S  +S   S  E    E    E    E         E        +S   E         +S   E        +S   E         +S   E        +E
|-------------------17-----------------------------------|---------------------------------------------------------------------------|
|----15-17b19==(17)----17r(17)-15-15---15---17---17b18---|-17pb19r==(17)-17pb19r===(17)-17pb19r==(17)-17pb19r===(17)-17pb19r==(17)---|
|-16-----------------------------------------------------|---------------------------------------------------------------------------|
|--------------------------------------------------------|---------------------------------------------------------------------------|
|--------------------------------------------------------|---------------------------------------------------------------------------|
|--------------------------------------------------------|---------------------------------------------------------------------------|
|
|  S  S  S       S   S  S   S   S  S S  S S  S S  S    S    S     S   S   S      S   S   S     S   S   S      S   S   S     S   S  S
|--------------------------------------------------------|---------------------------------------------------------------------------|
|--------------------------------------------------------|---------------------------------------------------------------------------|
|--------------------------------------------------------|---------------------------------------------------------------------------|
|--------------------------------------------------------|---------------------------------------------------------------------------|
|--9--x-11-------x---9--x--11---x--9-x-11-x--9-x-11----x-|-12-----x--14---x-----12---x--14-----x--12---x-----14---x--12-----x--14--x-|
|--7--x--7-------x---7--x---7---x--7-x--7-x--7-x--7----x-|-10-----x--10---x-----10---x--10-----x--10---x-----10---x--10-----x--10--x-|


   E        +S   E         +S   S      +E       S   E    S  S  E
|----------------------------------------------17------------------|
|-17pb19r==(17)-17pb19r===(17)-17b19==(17)----(17)-17r==15h17p15---|
|------------------------------------------------------------------|
|------------------------------------------------------------------|
|------------------------------------------------------------------|
|------------------------------------------------------------------|
|
|  S     S   S   S      S   S   S       S   S   S   S S  S  S  S S
|------------------------------------------------------------------|
|------------------------------------------------------------------|
|------------------------------------------------------------------|
|------------------------------------------------------------------|
|-12-----x--14---x-----12---x--14-------x--12---x--14-x-12--x-14-x-|
|-10-----x--10---x-----10---x--10-------x--10---x--10-x-10--x-10-x-|


  B5
   S  S  S  S  S  S  S  S  S  S  S  S  S  S  S  S    a  E    S  S  S  S  S  S  S      +S    S   E    S  S  S
|-17S19-19-19-19-19-19-19-17h19-19-19-17h19-19-19-|-17h19---17S14--------------------------17----------------|
|-------------------------------------------------|---------------17p15-17p15-17b19==(17)-(17)-17r==15----15-|
|-------------------------------------------------|----------------------------------------------------16----|
|-------------------------------------------------|----------------------------------------------------------|
|-------------------------------------------------|----------------------------------------------------------|
|-------------------------------------------------|----------------------------------------------------------|
|
|  S  S  S  S  S  S  S  S  S  S  S  S  S  S  S  S       S S  S  S  S  S  S  S  S       S    S   S S  S  S  S
|-------------------------------------------------|----------------------------------------------------------|
|-------------------------------------------------|----------------------------------------------------------|
|-------------------------------------------------|----------------------------------------------------------|
|-------------------------------------------------|----------------------------------------------------------|
|--9--x-11--x--9--x-11--x--9--x-11--x--9--x-11--x-|-----9-x-11--x--9--x-11--x--9-------x---11---x-9--x-11--x-|
|--7--x--7--x--7--x--7--x--7--x--7--x--7--x--7--x-|-----7-x--7--x--7--x--7--x--7-------x----7---x-7--x--7--x-|


  D5
   Q              S   S  +E     Q         E    E
|----------------17-----------------------------------|
|-17b19=========(17)-17r(17)---15--------17---15------|
|-----------------------------------------------------|
|-----------------------------------------------------|
|-----------------------------------------------------|
|-----------------------------------------------------|
|
|  S     S  S S   S   S   S  S  S S  S S  S S  S S
|-----------------------------------------------------|
|-----------------------------------------------------|
|-----------------------------------------------------|
|-----------------------------------------------------|
|-12-----x-14-x--12---x--14--x-12-x-14-x-12-x-14-x----|
|-10-----x-10-x--10---x--10--x-10-x-10-x-10-x-10-x----|


   Q              S   S  +E     Q          Q
|----------------17---------------------------------|
|-17b19=========(17)-17r(17)---15\------------------|
|---------------------------------------------------|
|---------------------------------------------------|
|---------------------------------------------------|
|---------------------------------------------------|
|
|  S     S  S S   S   S   S  S  S  S  S S  S S  S S
|---------------------------------------------------|
|---------------------------------------------------|
|---------------------------------------------------|
|---------------------------------------------------|
|-12-----x-14-x--12---x--14--x-12--x-14-x-12-x-14-x-|
|-10-----x-10-x--10---x--10--x-10--x-10-x-10-x-10-x-|


  B5
                                                             |-3-| |-3--|
   S S  S S S  S  S S  S S  S S S S  S S   S S  S S S S  S S E E E E E  E
|-10-7------7----------------------------|----------------------------------|
|------10-7---10--7---10-7------7--------|----------------------------------|
|-------------------9-------9-7---9--7---|-9-7------7--------8-6------------|
|--------------------------------------9-|------9-7---9--7-------7-6-5--4---|
|----------------------------------------|-----------------9----------------|
|----------------------------------------|----------------------------------|
|
|                                                            |-3-| |-3--|
|  S S  S S S  S  S S  S S  S S S S  S S   S S  S S S S  S S E E E E E  E
|----------------------------------------|----------------------------------|
|----------------------------------------|----------------------------------|
|----------------------------------------|----------------------------------|
|----------------------------------------|-------------------9-7------------|
|--9-x-11-x-9--x-11-x--9-x-11-x-9-x-11-x-|-9-x-11-x-9-x-11-x-----9-8-7------|
|--7-x--7-x-7--x--7-x--7-x--7-x-7-x--7-x-|-7-x--7-x-7-x--7-x-----------10---|


 Bridge 2
  B       A            B       A
  q  E. S S e S S E.   q  E. S S e S S E.
|--------------------|--------------------|
|--------------------|---------------9-7--|
|----8------6-----6--|----8------6--------|
|-------6-7---6-7----|-------6-7---6------|
|-6------------------|-6------------------|
|--------------------|--------------------|
|
| q  E. S S e S S E.   q  E. S S e S S E.
|--------------------|--------------------|
|--------------------|--------------------|
|--------------------|--------------------|
|----9------7-----7--|----9------7---9-7--|
|-------7-9---7-9----|-------7-9---7------|
|-7------------------|-7------------------|


  B       A            (A)  B     A
  q  E. S S e S S E.   E. S S S e E E S E.
|--------------------|-----------------------|
|--------------------|-----------------------|
|----8------6-----6--|------------6---9-7----|
|-------6-7---6-7----|--------7-9------------|
|-6------------------|-4--7s9----------------|
|--------------------|-----------------------|
|
| q  E. S S e S S E.   E. S S S e E E S E.
|--------------------|-----------------------|
|--------------------|-----------------------|
|--------------------|-----------------------|
|----9------7-----7--|------------7---9-7----|
|-------7-9---7-9----|--------7-9------------|
|-7------------------|-5--7s9----------------|


  B        A              B        A
  q   E. S  S e S  S E.   q   E. S  S e S  S  E.
|-----------------------|------------------------|
|-----------------------|-----------------12-10--|
|----11-------9------9--|----11-------9----------|
|--------9-11---9-11----|--------9-11---9--------|
|-9---------------------|-9----------------------|
|-----------------------|------------------------|
|
| q   E. S  S e S  S E.   q   E. S  S e S  S  E.
|-----------------------|------------------------|
|-----------------------|------------------------|
|-----------------------|------------------------|
|-----9-------7------7--|-----9-------7----9--7--|
|--------7--9---7--9----|--------7--9---7--------|
|-7---------------------|-7----------------------|


  B       A            (A)  B     A  Bb
  q  E. S S e S S E.   E. S S S e Q  Q
|--------------------|--------------------|
|--------------------|--------------------|
|----8------6-----6--|------------6--7----|
|-------6-7---6-7----|--------7-9---------|
|-6------------------|-4--7s9-------------|
|--------------------|--------------------|
|
| q  E. S S e S S E.   E. S S S e Q  Q
|--------------------|--------------------|
|--------------------|--------------------|
|--------------------|--------------------|
|----9------7-----7--|------------7--8----|
|-------7-9---7-9----|--------7-9---------|
|-7------------------|-5--7s9-------------|


  B                           D5       E5 D5
 4/4
  E  H..         W          E e e e E. E. E
|--------------|----------|-----------------|
|--------------|----------|-----------------|
|-8\-----------|----------|---7-7-7-7--9--7-|
|--------------|----------|---7-7-7-7--9--7-|
|--------------|----------|-----------------|
|--------------|----------|-----------------|
|
| E  H..         W          E e e e E. E. E
|--------------|----------|-----------------|
|--------------|----------|-----------------|
|--------------|----------|---7-7-7-7--9--7-|
|-9\-----------|----------|---7-7-7-7--9--7-|
|--------------|----------|---5-5-5-5--7--5-|
|--------------|----------|-----------------|


  B5                      D5
 5/8              2/4    4/4            5/4
  E E E S  T T E   H      E  H..         W
|----------------|------|--------------|------|
|----------------|------|--------------|------|
|----------7h9p7-|------|-7\-----------|------|
|-----7-9--------|-9----|-7\-----------|------|
|-7-9------------|------|--------------|------|
|----------------|------|--------------|------|
|
| E E E S  E.      H      E  H..         W
|----------------|------|--------------|------|
|----------------|------|--------------|------|
|----------------|------|--------------|------|
|-----7-9--------|------|-7\-----------|------|
|-7-9------------|------|-5\-----------|------|
|---------10-----|-7----|--------------|------|


  D5       E5 D5  B5
 7/8             5/8           2/4
  e e e E. E. E   E E E S  E.   H
|---------------|-------------|------|
|---------------|-------------|------|
|-7-7-7-7--9--7-|-------------|------|
|-7-7-7-7--9--7-|-----7-9-----|------|
|---------------|-7-9---------|------|
|---------------|---------10--|-7----|
|
| e e e E. E. E   E E E S  E.   H
|---------------|-------------|------|
|---------------|-------------|------|
|-7-7-7-7--9--7-|-------------|------|
|-7-7-7-7--9--7-|-----7-9-----|------|
|-5-5-5-5--7--5-|-7-9---------|------|
|---------------|---------10--|-7----|


  B5
                                                 3/4
  S S S S S S E   S S S S S S E   S S S S S S E   S S S S S  S S  S  S  S  E
|---------------|---------------|---------------|-----------------------9h10-|
|---------------|---------------|-------7h9p7---|-7h8h9-8h9h10-9h10h11-------|
|---------------|-------7h9p7---|-7h8h9-------9-|----------------------------|
|-------7h9p7---|-7h8h9-------9-|---------------|----------------------------|
|-7h8h9-------9-|---------------|---------------|----------------------------|
|---------------|---------------|---------------|----------------------------|
|
| S S S S S S E   S S S S S S E   S S S S S S E   S S S S S  S S  S  S  S  E
|---------------|---------------|---------------|----------------------------|
|---------------|---------------|---------------|----------------------10h11-|
|---------------|---------------|-------7h9p7---|-7h8h9-8h9h10-9h10h11-------|
|---------------|-------7h9p7---|-7h8h9-------9-|----------------------------|
|-------5h7p5---|-7h8h9-------9-|---------------|----------------------------|
|-5h6h7-------7-|---------------|---------------|----------------------------|


  B
 4/4
   ~~~~~~~~~~~~~~
   Q   Q   Q   E  +E
|-11--11--11--11-(11)S|
|---------------------|
|---------------------|
|---------------------|
|---------------------|
|---------------------|
|
|  ~~~~~~~~~~~~~~~~~~~~
|  Q   Q   Q   Q
|---------------------|
|-12--12--12--12------|
|---------------------|
|---------------------|
|---------------------|
|---------------------|


   |------6-------|  |------6-------|  |------6-------|
   S  S  S  S  S  S  S  S  S  S  S  S  S  S  S  S  S  S  Q
|-14p11h14p11h14p11h14p11h14p11h14p11h14p11h14p11h14p11-14\--|
|------------------------------------------------------------|
|------------------------------------------------------------|
|------------------------------------------------------------|
|------------------------------------------------------------|
|------------------------------------------------------------|
|
|~~~~~~~~~~~~~~~~~~~~~~~~~~~~~~~~~~~~~~~~~~~~~~~~~~~~~~~~~~~
|  Q                 Q                 Q                 Q
|------------------------------------------------------------|
|-12----------------12----------------12----------------12\--|
|------------------------------------------------------------|
|------------------------------------------------------------|
|------------------------------------------------------------|
|------------------------------------------------------------|


 Verse 3
                    Bm7            Bm7
  Wx2          Q.    E H      Q.    E H
|------------|--------------|--------------|
|------------|------15------|------15------|
|------------|------14------|------14------|
|------------|--------------|--------------|
|------------|--------------|--------------|
|------------|--------------|--------------|
|
| Wx2          Q.    E H      Q.    E H
|------------|--------------|--------------|
|------------|--------------|--------------|
|------------|--------------|--------------|
|------------|-------9------|-------9------|
|------------|-------9------|-------9------|
|------------|-------7------|-------7------|


       Bm7            Bm7            Bm7            Bm7D5    B5
                                              3/4
  Q.    E H      Q.    E H      Q.    E H      Q.    E  E.    S
|--------------|--------------|--------------|-----------------------|
|--------------|------15------|--------------|------15-15----12b15===|
|------14------|------14------|------14------|------14-14------------|
|------12------|--------------|------12------|-----------------------|
|--------------|--------------|--------------|-----------------------|
|--------------|--------------|--------------|-----------------------|
|
| Q.    E H      Q.    E H      Q.    E H      Q.    E  E  S  S
|--------------|--------------|--------------|-----------------------|
|--------------|--------------|--------------|-----------------------|
|--------------|--------------|--------------|-----------------------|
|-------9------|-------9------|-------9------|-------9-12--x--9------|
|-------9------|-------9------|-------9------|-------9-12--x--9------|
|-------7------|-------7------|-------7------|-------7-10--x--7------|


 Outro
  Q=90      H.=H
 4/4
                              |----6----| |----6----|
   Q.  E    Q.     E     +Q   S S S S S S S S S S S S E E
|----------------------|----------------------------------|
|-12r==8b10-8b10r======|==================================|
|------------------7b9-|-(7)--9-7-------------------------|
|----------------------|----------9-7-----9-7-------------|
|----------------------|--------------9-7-----9-7s5---5-6-|
|----------------------|----------------------------7-----|
|
|  W                     +W
|----------------------|----------------------------------|
|----------------------|----------------------------------|
|----------------------|----------------------------------|
|--9-------------------|-(9)------------------------------|
|--9-------------------|-(9)------------------------------|
|--7-------------------|-(7)------------------------------|


                     ~~~
   |-3--|
   E  E E S S S   S +H       E  H..
|--------------------------|-----------*|
|--------------------------|-----------*|
|-------------7b8----------|-7\--------*|
|---------7-9-----9-(9)----|-----------*|
|--7--8-9------------------|-----------*|
|--------------------------|-----------*|
|
| +W                         E  H..
|--------------------------|-----------*|
|--------------------------|-----------*|
|--------------------------|-----------*|
|-(9)----------------------|-9\--------*|
|-(9)----------------------|-9\--------*|
|-(7)----------------------|-7\--------*|


Duration Legend
---------------
W - whole; H - half; Q - quarter; E - 8th; S - 16th; T - 32nd; X - 64th; a - acciaccatura
+ - note tied to previous; . - note dotted; .. - note double dotted
Uncapitalized letters represent notes that are staccato (1/2 duration)
Irregular groupings are notated above the duration line
Duration letters will always appear directly above the note/fret number it represents the
duration for.  Duration letters with no fret number below them represent rests.  Multi-
bar rests are notated in the form Wxn, where n is the number of bars to rest for.  Low
melody durations appear below the staff

Tablature Legend
----------------
 h   - hammer-on
 p   - pull-off
 b   - bend
 pb  - pre-bend
 r   - bend release (if no number after the r, then release immediately)
 /\  - slide into or out of (from/to "nowhere")
 s   - legato slide
 S   - shift slide
  - natural harmonic
[n]  - artificial harmonic
n(n) - tapped harmonic
 ~   - vibrato
 tr  - trill
 T   - tap
 TP  - trem. picking
 PM  - palm muting
\n/  - tremolo bar dip; n = amount to dip
 \n  - tremolo bar down
 n/  - tremolo bar up
/n\  - tremolo bar inverted dip
 =   - hold bend; also acts as connecting device for hammers/pulls
 <>  - volume swell (louder/softer)
 x   - on rhythm slash represents muted slash
 o   - on rhythm slash represents single note slash

Misc Legend
-----------
 |  - bar
||  - double bar
||o - repeat start
o|| - repeat end
*|  - double bar (ending)
 :  - bar (freetime)
 $  - Segno
 &  - Coda
Tempo markers -  = BPM(8/16=s8/s16), where s8 = swing 8ths, s16 = swing 16ths
Black Betty chords by Ram Jam