Song name
# A B C D E F G H I J K L M N O P Q R S T U V W X Y Z

Ramin Djawadi - Pacific Rim tab

Tabbed by:  Lena Johnson
E-mail:  bymeownbeard@gmail.com

Tuning:  Drop-D

This tab:  Bare bones  fill in what you need, but this will get you started.


INTRO (Repeat as necessary):
e|---------------------------------------------------------------------------|
B|---------------------------------------------------------------------------|
G|---------------------------------------------------------------------------|
D|---------------------------------------------------------------------------|
A|-8-7-8-7-----5-5-5-------5-5-5---------------------------------------------|
D|---------10--------0-0-0---------------------------------------------------|

Next Part (Make adjustments as necessary, and repeat):
e|---------------------------------------------------------------------------|
B|---------------------------------------------------------------------------|
G|---------------------------------------------------------------------------|
D|---------------------------------------------------------------------------|
A|-8p7p0-3-5---5-3-5-3-5p3-5-3-5---------------------------------------------|
D|---------------------------------------------------------------------------|

Alternative version of above:
e|---------------------------------------------------------------------------|
B|---------------------------------------------------------------------------|
G|-------------7-5-7-5-7/5-7-5-7--5-5-5-5-4-4-4-4----------------------------|
D|---------------------------------------------------------------------------|
A|-8p7p0-3-5---5-3-5-3-5/3-5-3-5--3-3-3-3-2-2-2-2----------------------------|
D|---------------------------------------------------------------------------|


Next Part (Some adjustments needed):

e|---------------------------------------------------------------------------|
B|---------------------------------------------------------------------------|
G|---------------------------------------------------------------------------|
D|---------------------------------------------------------------------------|
A|-0-3-6-2-------------------------------------------------------------------|
D|-0-3-6-2-------------------------------------------------------------------|

Next Part:
e|---------------------------------------------------------------------------|
B|---------------------------------------------------------------------------|
G|---------------------------------------------------------------------------|
D|---------------------------------------------------------------------------|
A|------------------------8-7-8-7--------------------------------------------|
D|-0-0-0-0--0-0-0--0-0-0----------10-----------------------------------------|


************************************

| /   slide up
| \   slide down
| h   hammer-on
| p   pull-off
| ~   vibrato
| +   harmonic
| x   Mute note
| b   Bend
| pb  Pre-bend
| br  Bend release
| pbr Pre-bend release
| brb Bend release bend

************************************
Tap to rate this tab
# A B C D E F G H I J K L M N O P Q R S T U V W X Y Z