Song name
# A B C D E F G H I J K L M N O P Q R S T U V W X Y Z

Rammstein - Keine Lust tab

Artist: Rammstein
Song: Keine Lust
Album: Reise Reise / Keine Lust Single / Völkerball

Drop C

Main Riff:

D|-------------------------------------------------------------------------|
A|-------------------------------------------------------------------------|
F|---------------------------------------------------------------------8/5-|
C|---------------------------------------------------------------------x-x-|
G|-0-0-0-0-0-0-0--0--0-0-0-0-0-0-0--0--0-0-0-0-0-0-0--0--0-0-0-0-0-0-0-6/3-|
C|-0-0-0-0-0-0-0--0--0-0-0-0-0-0-0--0--0-0-0-0-0-0-0--0--0-0-0-0-0-0-0-----|
pm . . . . . . .  .  . . . . . . .  .  . . . . . . .  .  . . . . . . .

Verse 1:

Paul
D|-----------------|
A|-----------------|
F|-----------------|
C|-----------------|
G|--0-0-0-0-0-0-0--|
C|--0-0-0-0-0-0-0--|
pm  . . . . . . .

Verse 2:

Richard

The numbers with a * behind indicate where you hit the natural harmonic.
You have to achieve the bending effect by hitting it as a normal natural
harmonic and then gently add pressure on your finger and bend the string in
the direction of the high D string. If you don't manage to get the sound, try to
place the side of your finger against the fret. This helps, too.
Hitting the string hard, so it vibrates a lot, also helps.

D|---------------------------------------------------|
A|---------------------------------------------------|
F|---------------------------------------------------|
C|---------------------------------------------------|
G|--0-0-0-0-0-0-----------0-0-0-0-0-0-0-----------0--|
C|--0-0-0-0-0-0-3,1*-3,1*-0-0-0-0-0-0-0-2,8*-2,8*-0--|
pm  . . . . . .           . . . . . . .           .

Paul

D|-----------------|
A|-----------------|
F|-----------------|
C|-----------------|x2
G|--0-0-0-0-0-0-0--|
C|--0-0-0-0-0-0-0--|
pm  . . . . . . .

Chorus 1 :

Richard

D|---------------------------------------------------|
A|---------------------------------------------------|
F|---------------------------------------------------|
C|---------------------------------------------------|
G|--0-0-0-0-0-0-0-0-0-0-0-0-7-7-7-7-7-7-7-7-7-7-7-7--|
C|--0-0-0-0-0-0-0-0-0-0-0-0-7-7-7-7-7-7-7-7-7-7-7-7--|
pm  . . . . . . . . . . . . . . . . . . . . . . . .

D|---------------------------------------------------|
A|---------------------------------------------------|
F|---------------------------------------------------|
C|---------------------------------------------------|
G|--5-5-5-5-5-5-5-5-5-5-5-5-8-8-8-8-8-8-8-8-8-8-8-8--|
C|--5-5-5-5-5-5-5-5-5-5-5-5-8-8-8-8-8-8-8-8-8-8-8-8--|
pm  . . . . . . . . . . . . . . . . . . . . . . . .

Paul

D|---------------------------------------------------|
A|---------------------------------------------------|
F|---------------------------------------------------|
C|--0-0-0-0-0-0-0-0-0-0-0-0-7-7-7-7-7-7-7-7-7-7-7-7--|
G|--0-0-0-0-0-0-0-0-0-0-0-0-7-7-7-7-7-7-7-7-7-7-7-7--|
C|--0-0-0-0-0-0-0-0-0-0-0-0-7-7-7-7-7-7-7-7-7-7-7-7--|

D|---------------------------------------------------|
A|---------------------------------------------------|
F|---------------------------------------------------|
C|--5-5-5-5-5-5-5-5-5-5-5-5-8-8-8-8-8-8-8-8-8-8-8-8--|
G|--5-5-5-5-5-5-5-5-5-5-5-5-8-8-8-8-8-8-8-8-8-8-8-8--|
C|--5-5-5-5-5-5-5-5-5-5-5-5-8-8-8-8-8-8-8-8-8-8-8-8--|

Chorus 2:

Richard ---> Chorus 1

Paul

D|---------------------------------------------------|
A|---------------------------------------------------|
F|---------------------------------------------------|
C|--0-0-0-0-0-0-0-0-0-0-0-0-7-7-7-7-7-7-7-7-7-7-7-7--|
G|--0-0-0-0-0-0-0-0-0-0-0-0-7-7-7-7-7-7-7-7-7-7-7-7--|
C|--0-0-0-0-0-0-0-0-0-0-0-0-7-7-7-7-7-7-7-7-7-7-7-7--|

D|---------------------------------------------------|
A|---------------------------------------------------|
F|---------------------------------------------------|
C|--5-5-5-5-5-5-5-5-5-5-5-5-3-3-3-3-3-3-3-3-3-3-3-3--|
G|--5-5-5-5-5-5-5-5-5-5-5-5-3-3-3-3-3-3-3-3-3-3-3-3--|
C|--5-5-5-5-5-5-5-5-5-5-5-5-3-3-3-3-3-3-3-3-3-3-3-3--|


Break (Mir ist kalt...):

D|-----------------------------------------|
A|-----------------------------------------|
F|-----------------------------------------|
C|--0-------7---5---8---0-------7---5---8--|
G|--0-------7---5---8---0-------7---5---8--|
C|--0-------7---5---8---0-------7---5---8--|

Note: The 0-Powerchord is two times longer than the others

Bridge:

D|-----------------|
A|-----------------|
F|-----------------|
C|-----------------| x8
G|--0-0-0-0-0-0-0--|
C|--0-0-0-0-0-0-0--|
pm  . . . . . . .

D|-----------------|
A|-----------------|
F|-----------------|
C|-----------------| x8
G|--0-0-0-0-0-0-0--|
C|--0-0-0-0-0-0-0--|

D|-----------------|
A|-----------------|
F|-----------------|
C|--7-7-7-7-7-7-7--| x4
G|--5-5-5-5-5-5-5--|
C|--0-0-0-0-0-0-0--|


Note: All notes in this tab are triplets, so you hav to play 3 notes instead of 2 notes 
one beat!!!

Main Riff x2
Verse 1   x8
Verse 2   x4
Chorus 1  x2
Main Riff x1
Verse 1   x8
Verse 2   x2
Chorus 1  x3
Chorus 2  x1
Break     x2
Bridge    x1
Break     x3
Main Riff x2

Thanks to: Rammkopf

have fun;)
Tap to rate this tab
 
# A B C D E F G H I J K L M N O P Q R S T U V W X Y Z