Song name
# A B C D E F G H I J K L M N O P Q R S T U V W X Y Z

Rammstein - Pet Sematary tab

Intro 
e|-----------------------------------| 
B|-----------------------------------| 
G|*---------------------------------*| 
D|*-2-2-2-2-4-4-4-4-5-5-5-5-5-5-5-5-*|x4 
A|--2-2-2-2-4-4-4-4-5-5-5-5-5-5-5-5--| 
E|--0-0-0-0-2-2-2-2-3-3-3-3-3-3-3-3--| 


Verse 
e|-----------------------------------| 
B|-----------------------------------| 
G|*---------------------------------*| 
D|*---------------------------------*|x4 
A|--2-2-2-2-4-4-4-4-5-5-5-5-5-5-5-5--| 
E|--0-0-0-0-2-2-2-2-3-3-3-3-3-3-3-3--| 
pm  . . . . . . . . . . . . . . . . 


Bridge 
e|-----------------------------------| 
B|-----------------------------------| 
G|*---------------------------------*| 
D|*-7-7-7-7-7-7-7-7-2-2-2-2-2-2-2-2-*|x2 
A|--7-7-7-7-7-7-7-7-2-2-2-2-2-2-2-2--| 
E|--5-5-5-5-5-5-5-5-0-0-0-0-0-0-0-0--| 

e|-----------------------------------| 
B|-----------------------------------| 
G|--5-5-5-5-5-5-5-5-5-5-5-5-5-5-5-5--| 
D|--5-5-5-5-5-5-5-5-5-5-5-5-5-5-5-5--| 
A|--3-3-3-3-3-3-3-3-3-3-3-3-3-3-3-3--| 
E|-----------------------------------| 


Chorus 
e|------------------------------------------------------------------- 
B|------------------------------------------------------------------- 
G|*---------------------------------7-7-7-7-7-7-7-7-5-5-5-5-5-5-5-5-- 
D|*-2-2-2-2-2-2-2-2-5-5-5-5-5-5-5-5-7-7-7-7-7-7-7-7-5-5-5-5-5-5-5-5-- 
A|--2-2-2-2-2-2-2-2-5-5-5-5-5-5-5-5-5-5-5-5-5-5-5-5-3-3-3-3-3-3-3-3-- 
E|--0-0-0-0-0-0-0-0-3-3-3-3-3-3-3-3---------------------------------- 

e|-------------------------------------------------------------------| 
B|-------------------------------------------------------------------| 
G|------------------7-7-7-7-7-7-7-7-5-5-5-5-5-5-5-5-7-7-7-7-7-7-7-7-*| 
D|--2-2-2-2-2-2-2-2-7-7-7-7-7-7-7-7-5-5-5-5-5-5-5-5-7-7-7-7-7-7-7-7-*| 
A|--2-2-2-2-2-2-2-2-5-5-5-5-5-5-5-5-3-3-3-3-3-3-3-3-5-5-5-5-5-5-5-5--| 
E|--0-0-0-0-0-0-0-0--------------------------------------------------| 


End of the first chorus only 
e|-----------------------------------| 
B|-----------------------------------| 
G|--5-5-5-5-5-5-5-5-5-5-5-5-5-5-5-5--| 
D|--5-5-5-5-5-5-5-5-5-5-5-5-5-5-5-5--| 
A|--3-3-3-3-3-3-3-3-3-3-3-3-3-3-3-3--| 
E|-----------------------------------| 


In the rest of the song they play this at the end of each chorus 
e|-------------------------------------------------------------------| 
B|-------------------------------------------------------------------| 
G|*-----------------7-7-7-7-7-7-7-7-5-5-5-5-5-5-5-5-7-7-7-7-7-7-7-7-*| 
D|*-2-2-2-2-2-2-2-2-7-7-7-7-7-7-7-7-5-5-5-5-5-5-5-5-7-7-7-7-7-7-7-7-*| 
A|--2-2-2-2-2-2-2-2-5-5-5-5-5-5-5-5-3-3-3-3-3-3-3-3-5-5-5-5-5-5-5-5--| 
E|--0-0-0-0-0-0-0-0--------------------------------------------------| 


Solo (2:04) 

I listened to other bootlegs too ... there really is no solo here, they just improvised. 

1st guitar (or what can be heard of it ? fast rate) 
e|----------12---10----------------------------------------------------------------------------------| 
B|------------------12-10-12-10~---------------------------------------------------------------------| 
G|-------------------------------12-9-12~--9-9~-----------------------------------------------7-7b9~-| 
D|---------------------------------------------------------------------------------------------------| 
A|---------------------------------------------------------------------------------------------------| 
E|---------------------------------------------------------------------------------------------------| 

2nd guitar 
e|---------------------------------------------------------------------------------------------------| 
B|---------------------------------------------------------------------------------------------------| 
G|----------------------------------5-5-5-5-5-5-5-5-5-5-5-5-5-5-5-5/7-7-7-7-7-7-7-7-7-7-7-7-7-7-7-7--| 
D|------2-2-----2-2-----2-2-----2-2-5-5-5-5-5-5-5-5-5-5-5-5-5-5-5-5/7-7-7-7-7-7-7-7-7-7-7-7-7-7-7-7--| 
A|--2-2-2-2-2-2-2-2-2-2-2-2-2-2-2-2-3-3-3-3-3-3-3-3-3-3-3-3-3-3-3-3/5-5-5-5-5-5-5-5-5-5-5-5-5-5-5-5--| 
E|--0-0-0-0-0-0-0-0-0-0-0-0-0-0-0-0------------------------------------------------------------------| 
pm  . .     . .     . .     . . 


Quiet part (3:24) 
They play this one (I dunno if it?s the same in the original song) 
e|-------------------| 
B|-------------------| 
G|*-----------------*| 
D|*---------------2-*| 
A|--2-2-2-2-2-2-2-2--| 
E|--0-0-0-0-0-0-0-0--| 
pm  . . . . . . . 


Final riff (slowing down) 
e|--------------------------------------------------------------------------------| 
B|--------------------------------------------------------------------------------| 
G|------------------7-7-7-7-7-7-7-7-5-5-5-5-5-5-5-5-7-7-7-7-7-7-7-7---------------| 
D|--2-2-2-2-2-2-2-2-7-7-7-7-7-7-7-7-5-5-5-5-5-5-5-5-7-7-7-7-7-7-7-7-2-------------| 
A|--2-2-2-2-2-2-2-2-5-5-5-5-5-5-5-5-3-3-3-3-3-3-3-3-5-5-5-5-5-5-5-5-2-(let ring)--| 
E|--0-0-0-0-0-0-0-0-------------------------------------------------0-------------| 
Tap to rate this tab
# A B C D E F G H I J K L M N O P Q R S T U V W X Y Z