Song name
# A B C D E F G H I J K L M N O P Q R S T U V W X Y Z

Ramones - Chinese Rock tab

----------------------------------------------------------------------------
			     CHINESE ROCKS - The Ramones
----------------------------------------------------------------------------
Tabbed by: Geoff
Email: bergg23@hotmail.com
This is a great, easy song so Id thought Id give tabbing it a try. This is
my first tab so if you have any comments or suggestions please leave a comment
or email me.

	INTRO 

e|-----------------------------------------------|
B|-----------------------------------------------|
G|--------------------------4/555-555--4/555-555-|
D|-4/555-555--4/555-555-----4/555-555--4/555-555-|
A|-4/555-555--4/555-555-----2/333-333--2/333-333-|
E|-2/333-333--2/333-333--------------------------|

	VERSE 

e|-------------------|
B|-------------------|
G|-------------------|
D|-44444444----------|
A|-44444444-55555555-|
E|-22222222-33333333-|

	CHORUS 

e|-------------|
B|-------------|
G|-------------|
D|-77----------|
A|-55-77-99-55-|
E|----55-77-33-|

	INTERLUDE

e|---------------------------------|
B|---------------------------------|
G|---------------------------------|
D|-3-5-7-777777--3-5-7-777777-7----|
A|-3-5-7-777777--3-5-7-777777-5-7-5|
E|-1-3-5-555555--1-3-5-555555---5-3|

	END

e|-----------------|
B|-----------------|
G|-----------------|
D|-3-5--3-5--3-5-7-|
A|-3-5--3-5--3-5-7-|
E|-1-3--1-3--1-3-5-|

Intro X2
Verse X4
Chorus x4
Intro x2
Verse X4
Chorus x4
Interlude
Intro X2
Verse x4
Chorus x8
end


Thats it. Sounds right to me. If you have any comments/
suggestions please leave a comment or email me.


| /  slide up
| \  slide down
| h  hammer-on
| p  pull-off
| ~  vibrato
Tap to rate this tab
 
# A B C D E F G H I J K L M N O P Q R S T U V W X Y Z