Song name
# A B C D E F G H I J K L M N O P Q R S T U V W X Y Z

Ramones - Somebody To Love tab

Tabed by: Wigi.L
Song:     Somebody to love
Band:     The Ramones

Intro/Verse
e--------------------------------------------------------|
h--------------------------------------------------------|
G------------------7-7-7-7-7-7-7-------------------------|
D-7-7-7-7-7-7-7-7--7-7-7-7-7-7-7---7-7-7-7-7-7-7-7-------|
A-7-7-7-7-7-7-7-7--5-5-5-5-5-5-5---7-7-7-7-7-7-7-7-------|
E-5-5-5-5-5-5-5-5------------------5-5-5-5-5-5-5-5-------|

Chorus
e----------------------------------------------------------|
h----------------------------------------------------------|
G-5-5-----------5-5-----------5-5--------------------------|
D-5-5-5-5-7-7-7-5-5-5-5-7-7-7-5-5-5-5-7-7-7----------------|
A-3-3-5-5-7-7-7-3-3-5-5-7-7-7-3-3-5-5-7-7-7----------------|
E-----3-3-5-5-5-----3-3-5-5-5-----3-3-5-5-5----------------|

Bridge:
e------------------------------------------------------------------|
h------------------------------------------------------------------|
G------------------------------------------------------------------|
D-7-7-7-7-7-5-5-5-5-5-7-7-7-7-7-5-5-5-5-5-7-7-7-7-7-7-7-7-7-7------|
A-7-7-7-7-7-5-5-5-5-5-7-7-7-7-7-5-5-5-5-5-7-7-7-7-7-7-7-7-7-7------|
E-5-5-5-5-5-3-3-3-3-3-5-5-5-5-5-3-3-3-3-3-5-5-5-5-5-5-5-5-5-5------|

End
e-----------------------------------------------------------------------|
h-----------------------------------------------------------------------|
G----------------------------7-7-7-7-7-7-7-7-7-7-7----------------------|
D-7-7-7-7-7-7-7-7-7-7-7-7-7--7-7-7-7-7-7-7-7-7-7-7----------------------| 3x
A-7-7-7-7-7-7-7-7-7-7-7-7-7--5-5-5-5-5-5-5-5-5-5-5----------------------|
E-5-5-5-5-5-5-5-5-5-5-5-5-5---------------------------------------------|

e-------------------------------------------------------------------|
h-------------------------------------------------------------------|
G-------------------------------------------------------------------|
D-5-5-5-5-5-5-5-5-5-5-7-7-7-7-7-7-7-7-7-7---------------------------| 3x
A-5-5-5-5-5-5-5-5-5-5-7-7-7-7-7-7-7-7-7-7---------------------------|
E-3-3-3-3-3-3-3-3-3-3-5-5-5-5-5-5-5-5-5-5---------------------------|


Intro:2x
Chorus:1x
Bridge:1x
Verse: 2x
Chorus:1x
Verse :2x
Chorus:1x
Bridge:1x
Verse:2x
Chorus:1x
Bridge:1x
End
Tap to rate this tab
 
# A B C D E F G H I J K L M N O P Q R S T U V W X Y Z