Song name
# A B C D E F G H I J K L M N O P Q R S T U V W X Y Z

Ramones - My Brain Is Hanging Upside Down tab

Ramones, The
My Brain Is Hanging Upside Down (Bonzo Goes To Bitburg)
quickstring@yahoo.com

The Am in the Bridge could possibly be a C.
My first tab.
Second verse looks choppy, but listen to the song and you'll see I'm right.
Little mistakes, but you should knock this one out in probly 15 minutes.
I tried, VERY hard to give you an idea of the timing.

Standard Tuning

Intro
     G
e|------------------------------------------------------------|
B|------------------------------------------------------------|
G|------------------------------------------------------------|
D|---5-x-5-x-55-x-55-x-55-x-55-x-5-x-5-x-55-x-55-x-55-x-55-x--|
A|---5-x-5-x-55-x-55-x-55-x-55-x-5-x-5-x-55-x-55-x-55-x-55-x--|
E|---3-x-3-x-33-x-33-x-33-x-33-x-3-x-3-x-33-x-33-x-33-x-33-x--|

     F                                    C
e|---1---1-1-1-1-1-1-1-1-1-1-1-1-1-1--|---0---0-0-0-0-0-0-0-0-0-0-0-0-0-0--|
B|---1---1-1-1-1-1-1-1-1-1-1-1-1-1-1--|---1---1-1-1-1-1-1-1-1-1-1-1-1-1-1--|
G|---2---2-2-2-2-2-2-2-2-2-2-2-2-2-2--|---0---0-0-0-0-0-0-0-0-0-0-0-0-0-0--|
D|---3---3-3-3-3-3-3-3-3-3-3-3-3-3-3--|---2---2-2-2-2-2-2-2-2-2-2-2-2-2-2--|
A|---0---0-0-0-0-0-0-0-0-0-0-0-0-0-0--|---3---3-3-3-3-3-3-3-3-3-3-3-3-3-3--|
E|---x---x-x-x-x-x-x-x-x-x-x-x-x-x-x--|---x---x-x-x-x-x-x-x-x-x-x-x-x-x-x--|

     G5                                   G5
e|---3---3-3-3-3-3-3-3-3-3-3-3-3-3-3--|---3---3-3-3-3-3-3-3-3-3-3-3-3-3-3--|
B|---3---3-3-3-3-3-3-3-3-3-3-3-3-3-3--|---3---3-3-3-3-3-3-3-3-3-3-3-3-3-3--|
G|---0---0-0-0-0-0-0-0-0-0-0-0-0-0-0--|---0---0-0-0-0-0-0-0-0-0-0-0-0-0-0--|
D|---0---0-0-0-0-0-0-0-0-0-0-0-0-0-0--|---0---0-0-0-0-0-0-0-0-0-0-0-0-0-0--|
A|---x---x-x-x-x-x-x-x-x-x-x-x-x-x-x--|---x---x-x-x-x-x-x-x-x-x-x-x-x-x-x--|
E|---3---3-3-3-3-3-3-3-3-3-3-3-3-3-3--|---3---3-3-3-3-3-3-3-3-3-3-3-3-3-3--|


Intro/Verse

     F                                    C
e|---1---1-1-1-1-1-1-1-1-1-1-1-1-1-1--|---0---0-0-0-0-0-0-0-0-0-0-0-0-0-0--|
B|---1---1-1-1-1-1-1-1-1-1-1-1-1-1-1--|---1---1-1-1-1-1-1-1-1-1-1-1-1-1-1--|
G|---2---2-2-2-2-2-2-2-2-2-2-2-2-2-2--|---0---0-0-0-0-0-0-0-0-0-0-0-0-0-0--|
D|---3---3-3-3-3-3-3-3-3-3-3-3-3-3-3--|---2---2-2-2-2-2-2-2-2-2-2-2-2-2-2--|
A|---0---0-0-0-0-0-0-0-0-0-0-0-0-0-0--|---3---3-3-3-3-3-3-3-3-3-3-3-3-3-3--|
E|---x---x-x-x-x-x-x-x-x-x-x-x-x-x-x--|---x---x-x-x-x-x-x-x-x-x-x-x-x-x-x--|

1. You've got to  pick up the pieces,       c'mon,  sort your trash, and you
2. Better call,  call the law,        when you gonna turn yourself in? Yeah,

     G5                                   G5
e|--3---3-3-3-3-3-3-3-3-3-3-3-3-3-3--|--3---3-3-3-3-3-3-3-3-3-3-3-3-3-3--|
B|--3---3-3-3-3-3-3-3-3-3-3-3-3-3-3--|--3---3-3-3-3-3-3-3-3-3-3-3-3-3-3--|
G|--0---0-0-0-0-0-0-0-0-0-0-0-0-0-0--|--0---0-0-0-0-0-0-0-0-0-0-0-0-0-0--|
D|--0---0-0-0-0-0-0-0-0-0-0-0-0-0-0--|--0---0-0-0-0-0-0-0-0-0-0-0-0-0-0--|
A|--x---x-x-x-x-x-x-x-x-x-x-x-x-x-x--|--x---x-x-x-x-x-x-x-x-x-x-x-x-x-x--|
E|--3---3-3-3-3-3-3-3-3-3-3-3-3-3-3--|--3---3-3-3-3-3-3-3-3-3-3-3-3-3-3--|

1. Better pull yourself back together, maybe you've got too much cash, baby.
2. You're          a politician,      don't become one of Hitler's children.


Bridge

     Am                                   G5                   F
e|---0-0-0-0-0-0-0-0-0-0-0-0-0-0-0-0-0-0--3--------------------1---|
B|---1-1-1-1-1-1-1-1-1-1-1-1-1-1-1-1-1-1--3--------------------1---|
G|---2-2-2-2-2-2-2-2-2-2-2-2-2-2-2-2-2-2--0--------------------2---|
D|---2-2-2-2-2-2-2-2-2-2-2-2-2-2-2-2-2-2--0--------------------3---|
A|---0-0-0-0-0-0-0-0-0-0-0-0-0-0-0-0-0-0--x--------------------0---|
E|---0-0-0-0-0-0-0-0-0-0-0-0-0-0-0-0-0-0--3--------------------x---|

     Bonzo  goes  to  Bitburg  then  goes out for a  cup  of  tea,

     Am                                   G5                   F
e|---0-0-0-0-0-0-0-0-0-0-0-0-0-0-0-0-0-0--3--------------------1---|
B|---1-1-1-1-1-1-1-1-1-1-1-1-1-1-1-1-1-1--3--------------------1---|
G|---2-2-2-2-2-2-2-2-2-2-2-2-2-2-2-2-2-2--0--------------------2---|
D|---2-2-2-2-2-2-2-2-2-2-2-2-2-2-2-2-2-2--0--------------------3---|
A|---0-0-0-0-0-0-0-0-0-0-0-0-0-0-0-0-0-0--x--------------------0---|
E|---0-0-0-0-0-0-0-0-0-0-0-0-0-0-0-0-0-0--3--------------------x---|

     As  I  watched it on T.V. somehow it really   bothered    me,

     Am                                   G5                   F
e|---0-0-0-0-0-0-0-0-0-0-0-0-0-0-0-0-0-0--3--------------------1---|
B|---1-1-1-1-1-1-1-1-1-1-1-1-1-1-1-1-1-1--3--------------------1---|
G|---2-2-2-2-2-2-2-2-2-2-2-2-2-2-2-2-2-2--0--------------------2---|
D|---2-2-2-2-2-2-2-2-2-2-2-2-2-2-2-2-2-2--0--------------------3---|
A|---0-0-0-0-0-0-0-0-0-0-0-0-0-0-0-0-0-0--x--------------------0---|
E|---0-0-0-0-0-0-0-0-0-0-0-0-0-0-0-0-0-0--3--------------------x---|

     Drank in all the bars in town for an extended foreign policy,

     F                               F
e|---1-1-1-1-1-1-1-1-1-1-1-1-1-1-1-1-1-1-1-1-1-1-1-1-1-1-1-1-1-1-1-1-|
B|---1-1-1-1-1-1-1-1-1-1-1-1-1-1-1-1-1-1-1-1-1-1-1-1-1-1-1-1-1-1-1-1-|
G|---2-2-2-2-2-2-2-2-2-2-2-2-2-2-2-2-2-2-2-2-2-2-2-2-2-2-2-2-2-2-2-2-|
D|---3-3-3-3-3-3-3-3-3-3-3-3-3-3-3-3-3-3-3-3-3-3-3-3-3-3-3-3-3-3-3-3-|
A|---0-0-0-0-0-0-0-0-0-0-0-0-0-0-0-0-0-0-0-0-0-0-0-0-0-0-0-0-0-0-0-0-|
E|---x-x-x-x-x-x-x-x-x-x-x-x-x-x-x-x-x-x-x-x-x-x-x-x-x-x-x-x-x-x-x-x-|

                     Pick up the pieces...


Chorus

     C                                 G5               F
e|---0-0-0-0-0-0-0-0-0-0-0-0-0--0--0---3----------------1----------|
B|---1-1-1-1-1-1-1-1-1-1-1-1-1--1--1---3----------------1----------|
G|---0-0-0-0-0-0-0-0-0-0-0-0-0--0--0---0----------------2----------|
D|---2-2-2-2-2-2-2-2-2-2-2-2-3--2--0---0----------------3----------|
A|---3-3-3-3-3-3-3-3-3-3-3-3-3--3--3---x----------------0----------|
E|---x-x-x-x-x-x-x-x-x-x-x-x-x--x--x---3----------------x----------|

     Ah         -         h, na na na
                                    My brain is hanging upside down,

     C                                 G5               F
e|---0-0-0-0-0-0-0-0-0-0-0-0-0--0--0---3----------------1----------|
B|---1-1-1-1-1-1-1-1-1-1-1-1-1--1--1---3----------------1----------|
G|---0-0-0-0-0-0-0-0-0-0-0-0-0--0--0---0----------------2----------|
D|---2-2-2-2-2-2-2-2-2-2-2-2-3--2--0---0----------------3----------|
A|---3-3-3-3-3-3-3-3-3-3-3-3-3--3--3---x----------------0----------|
E|---x-x-x-x-x-x-x-x-x-x-x-x-x--x--x---3----------------x----------|

     Ah         -         h, na na na
                                    I need something to slow me down.

     C                                 G5               F
e|---0-0-0-0-0-0-0-0-0-0-0-0-0--0--0---3----------------1----------|
B|---1-1-1-1-1-1-1-1-1-1-1-1-1--1--1---3----------------1----------|
G|---0-0-0-0-0-0-0-0-0-0-0-0-0--0--0---0----------------2----------|
D|---2-2-2-2-2-2-2-2-2-2-2-2-3--2--0---0----------------3----------|
A|---3-3-3-3-3-3-3-3-3-3-3-3-3--3--3---x----------------0----------|
E|---x-x-x-x-x-x-x-x-x-x-x-x-x--x--x---3----------------x----------|

     Ah         -         h, na na na
                          Ooo yeah, My brain is hanging upside down,

     C                                 G5
e|---0-0-0-0-0-0-0-0-0-0-0-0-0--0--0---3---------------------------|
B|---1-1-1-1-1-1-1-1-1-1-1-1-1--1--1---3---------------------------|
G|---0-0-0-0-0-0-0-0-0-0-0-0-0--0--0---0---------------------------|
D|---2-2-2-2-2-2-2-2-2-2-2-2-3--2--0---0---------------------------|
A|---3-3-3-3-3-3-3-3-3-3-3-3-3--3--3---x---------------------------|
E|---x-x-x-x-x-x-x-x-x-x-x-x-x--x--x---3---------------------------|

     Ah         -         h, na na na
                                And I need something to slow me down.

     G5                           G                                    G
e|---3----------------------------3---|---3----------------------------3---|
B|---3----------------------------3---|---3----------------------------3---|
G|---0----------------------------0---|---0----------------------------0---|
D|---0----------------------------0---|---0----------------------------0---|
A|---x----------------------------2---|---3----------------------------2---|
E|---3----------------------------3---|---3----------------------------3---|


Verse 2

     F                             F    C C                              C
e|---1-----------------------------1--|-1-0------------------------------0-|
B|---1-----------------------------1--|-1-1------------------------------1-|
G|---2-----------------------------2--|-2-0------------------------------0-|
D|---3-----------------------------3--|-3-2------------------------------2-|
A|---0-----------------------------0--|-0-3------------------------------3-|
E|---x-----------------------------x--|-x-x------------------------------x-|

       Shouldn't wish her  happiness,         wish her     the very best

     C G5
e|---0-3---------------------------3--|-3-3----------------------------- 3-|
B|---1-3---------------------------3--|-3-3------------------------------3-|
G|---0-0---------------------------0--|-0-0------------------------------0-|
D|---2-0---------------------------0--|-0-0------------------------------0-|
A|---3-x---------------------------x--|-x-x------------------------------x-|
E|---x-3---------------------------3--|-3-3------------------------------3-|

       Fifty thou-sand dollar dress,       shaking hands with your highness

   G5F                             F    F C                              C
e|-3-1-----------------------------1--|-1-0------------------------------0-|
B|-3-1-----------------------------1--|-1-1------------------------------1-|
G|-0-2-----------------------------2--|-2-0------------------------------0-|
D|-0-3-----------------------------3--|-3-2------------------------------2-|
A|-x-0-----------------------------0--|-0-3------------------------------3-|
E|-3-x-----------------------------x--|-x-x------------------------------x-|

      See through you like cellophane,    you watch  the world complain, but

   C G5                            G5   G5G5                             G5
e|-0-3-----------------------------3--|-3-3------------------------------3-|
B|-1-3-----------------------------3--|-3-3------------------------------3-|
G|-0-0-----------------------------0--|-0-0------------------------------0-|
D|-2-0-----------------------------0--|-0-0------------------------------0-|
A|-3-x-----------------------------x--|-x-x------------------------------x-|
E|-x-3-----------------------------3--|-3-3------------------------------3-|

       You do it             anyway.          Who am I, am I to say?


Bridge

     Am                                   G5                   F
     Bonzo  goes  to  Bitburg  then  goes out for a  cup  of  tea,

     Am                                   G5                   F
     As  I  watched it on T.V. somehow it really   bothered    me,

     Am                                   G5                   F
     Drank in all the bars in town for an extended foreign policy

     F                               F
                     Pick up the pieces...


Chorus

     C                                 G5               F
     Ah         -         h, na na na
                                    My brain is hanging upside down,

     C                                 G5               F
     Ah         -         h, na na na
                                    I need something to slow me down.

     C                                 G5               F
     Ah         -         h, na na na
                          Ooo yeah, My brain is hanging upside down,

     C                                 G5               F
     Ah         -         h, na na na
                                And I need something to slow me down.


Breakdown: Repeat 4x (Slide pick between chords against the strings.)

     D               A       G5        
e|---2---------------0-00----3---------|
B|---3---------------2-22----3---------|
G|---2---------------2-22----0---------|
D|---0---------------2-22----0---------|
A|---0---------------0-00----x---------|
E|---0---------------0-00----3---------|


Outro

     D 16x                           A 8x            G5 8x
e|---2-2-2-2-2-2-2-2-2-2-2-2-2-2-2-2-0-0-0-0-0-0-0-0-3-3-3-3-3-3-3-3---|
B|---3-3-3-3-3-3-3-3-3-3-3-3-3-3-3-3-2-2-2-2-2-2-2-2-3-3-3-3-3-3-3-3---|
G|---2-2-2-2-2-2-2-2-2-2-2-2-2-2-2-2-2-2-2-2-2-2-2-2-0-0-0-0-0-0-0-0---|
D|---0-0-0-0-0-0-0-0-0-0-0-0-0-0-0-0-2-2-2-2-2-2-2-2-0-0-0-0-0-0-0-0---|
A|---0-0-0-0-0-0-0-0-0-0-0-0-0-0-0-0-0-0-0-0-0-0-0-0-x-x-x-x-x-x-x-x---|
E|---0-0-0-0-0-0-0-0-0-0-0-0-0-0-0-0-0-0-0-0-0-0-0-0-3-3-3-3-3-3-3-3---|

D
If  there's  one  thing,  that  makes  me sick, it's when,

A                             G5
Someone tries to hide behind  politics

D
I'd  wish  that  time could go by fast;  but,

A                          G5
Somehow  they  manage   to make it last.


Outro - Chorus: Repeat 2x

     D                                 A                G5
     Ah         -         h, na na na
                          Ooo yeah, My brain is hanging upside down,

     D                                 A                G5
     Ah         -         h, na na na
                                    I need something to slow me down.

     D                                 A                G5
     Ah         -         h, na na na
                          Ooo yeah, My brain is hanging upside down,

     D                                 A                G5
     Ah         -         h, na na na
                                And I need something to slow me down.

                                                               - Quickstring
Tap to rate this tab
# A B C D E F G H I J K L M N O P Q R S T U V W X Y Z